Oops, an error
Loading. Please wait.

Appetites Tab

188 views 1 this week
no commentswrite comment
1 2 3 4 5
3 more votes to show rating
add to favorites
launch autoscroll
font size
0
reset
how to read this tab
guitar tuner
Autoscroll
slow
fast
+/-
esc
set tempo
stop
Author
Difficulty
novice
INTRO tabbed only

E||--------------------------|--------------7--7---------|
B||-----8--7--8-----8--7--8--|-----8--7--8--------10--8--|
G||-----9--7--9-----9--7--9--|-----9--7--9---------------|
D||--------------------------|---------------------------|
A||--------------------------|---------------------------|
E||--------------------------|---------------------------|

--------------------------|--------------7--7---------|
-----8--7--8-----8--7--8--|-----8--7--8--------10--8--|
-----9--7--9-----9--7--9--|-----9--7--9---------------|
--------------------------|---------------------------|
--------------------------|---------------------------|
--------------------------|---------------------------|

--------------------------|--------------7--7---------|
-----8--7--8-----8--7--8--|-----8--7--8--------10--8--|
-----9--7--9-----9--7--9--|-----9--7--9---------------|
--------------------------|---------------------------|
--------------------------|---------------------------|
--------------------------|---------------------------|

--------------7--7---------|--------------------------|
-----8--------------10--8--|--L-----------------------|
--------9--7---------------|-----7--7--7--7--7--8--9--|
---------------------------|--------------------------|
---------------------------|--------------------------|
---------------------------|--------------------------|

BASS ENTERS

--------------------------|--------------7--7---------|
-----8--7--8-----8--7--8--|-----8--7--8--------10--8--|
-----9--7--9-----9--7--9--|-----9--7--9---------------|
-----9--7--9-----9--7--9--|-----9--7--9---------------|
--------------------------|---------------------------|
--------------------------|---------------------------|

--------------------------|--------------7--7---------|
-----8--7--8-----8--7--8--|-----8--7--8--------10--8--|
-----9--7--9-----9--7--9--|-----9--7--9---------------|
-----9--7--9-----9--7--9--|-----9--7--9---------------|
--------------------------|---------------------------|
--------------------------|---------------------------|

--------------------------|--------------7--7---------|
-----8--7--8-----8--7--8--|-----8--7--8--------10--8--|
-----9--7--9-----9--7--9--|-----9--7--9---------------|
-----9--7--9-----9--7--9--|-----9--7--9---------------|
--------------------------|---------------------------|
--------------------------|---------------------------|

--------------7--7---------|--------------------------|
-----8--------------10--8--|--------------------------|
--------9--7---------------|-----7--7--7--7--7--8--9--|
---------------------------|--------------------------|
---------------------------|--------------------------|
---------------------------|--------------------------|

--------------------------|--------------7--7---------|
-----8--7--8-----8--7--8--|-----8--7--8--------10--8--|
-----9--7--9-----9--7--9--|-----9--7--9---------------|
-----9--7--9-----9--7--9--|-----9--7--9---------------|
--------------------------|---------------------------|
--------------------------|---------------------------|

--------------------------|--------------7--7---------|
-----8--7--8-----8--7--8--|-----8--7--8--------10--8--|
-----9--7--9-----9--7--9--|-----9--7--9---------------|
-----9--7--9-----9--7--9--|-----9--7--9---------------|
--------------------------|---------------------------|
--------------------------|---------------------------|

--------------------------|--------------7--7---------|
-----8--7--8-----8--7--8--|-----8--7--8--------10--8--|
-----9--7--9-----9--7--9--|-----9--7--9---------------|
-----9--7--9-----9--7--9--|-----9--7--9---------------|
--------------------------|---------------------------|
--------------------------|---------------------------|

--------------7--7---------|--------------------------||
-----8--------------10--8--|--------------------------||
--------9--7---------------|-----7--7--7--7--7--8--9--||
---------------------------|--------------------------||
---------------------------|--------------------------||
---------------------------|--------------------------||
Suggest correction
Give kudos to tab author, rate the tab!
1 2 3 4 5
comments
print report bad tab
guest
You may want to rate the tab now too:
select rating
Wanna post a correction for this tab? Suggest correction