Oops, an error
Loading. Please wait.

Hold On To Your Genre Tab

957 views 1 this week
1 commentread comment
1 2 3 4 5
1 last vote to show rating
add to favorites
launch autoscroll
font size
0
reset
how to read this tab
guitar tuner
×
Best way to learn
"Hold On To Your Genre"
Autoscroll
slow
fast
+/-
esc
set tempo
stop
Ok so basicly this is only the intro but bare with me ill try to get more songs up by 
Les Savy Fav.In Les Savy Fav the guitarist plays a Fender Stratocaster, so your going to want something  
with single coil pick-ups.
Also stick some distortion in there.(this is my first tab)-all comments corrections or discussions  
send to rockanater@Gmail.com


Intro- starts off with bass and simple hi-hat and snare pattern

You will have to figure out the rhythm for yourself.


e|----7-7--7-7-7--7-7-7------5-------6-6--6-6--6-6--5-5-----------------|
B|----7-7--7-7-7--7-7-7--5h6--6-5h6--8-8--8-8--8-8--7-7-----------------|
G|----------------------------------------------------------------------| X4
D|----------------------------------------------------------------------|
A|----------------------------------------------------------------------|
E|----------------------------------------------------------------------|
Suggest correction
Give kudos to tab author, rate the tab!
1 2 3 4 5
comments
print report bad tab
1 comment total.
+5 reply
ssimms 31 Jan 22, 2008 04:38 PM

e------77--7-77--7-77------5-------------
B------77--7-77--7-77--6-7---7-6-7-------
G ***********

D
A
E

guest
You may want to rate the tab now too:
select rating
Wanna post a correction for this tab? Suggest correction