Oops, an error
Loading. Please wait.

Kiss Kiss Is Getting Old Bass

version 1
version 1

Whole song

Interactive

41 views 1 this week
no commentswrite comment
1 2 3 4 5
3 more votes to show rating
add to favorites
launch autoscroll
font size
0
reset
guitar tuner
×
Best way to learn
"Kiss Kiss Is Getting Old"
Autoscroll
slow
fast
+/-
esc
set tempo
stop
Les Savy Fav - Kiss Kiss Is Getting Old bass tab

INTRO

G||--------------------------|-------------------------|
D||--------------------------|-------------------------|
A||--4--4-----4--4-----4--4--|-----4--4----------------|
E||--------------------------|--------------5--5--5----|

--------------------------|-------------------------|--------------------------|
--------------------------|-------------------------|--------------------------|
--4--4-----4--4-----4--4--|-----4--4----------------|--5--5-----5--5-----5--5--|
--------------------------|--------------5--5--5----|--------------------------|

--------------------------|--------------------------|
--------------------------|--------------------------|
-----5--5-----5--5-----5--|--5-----5--5-----5--5-----|
--------------------------|--------------------------|

--------------------------|--------------------------|-------------------------|
--------------------------|--------------------------|-------------------------|
--5--5-----5--5-----5--5--|--4--4-----4--4-----4--4--|-----4--4----------------|
--------------------------|--------------------------|--------------5--5--5----|

--------------------------|-------------------------|--------------------------|
--------------------------|-------------------------|--------------------------|
--4--4-----4--4-----4--4--|-----4--4----------------|--5--5-----5--5-----5--5--|
--------------------------|--------------5--5--5----|--------------------------|

--------------------------|--------------------------|
--------------------------|--------------------------|
-----5--5-----5--5-----5--|--5-----5--5-----5--5-----|
--------------------------|--------------------------|

                          VERSE
--------------------------|--------------------------|-------------------------|
--------------------------|--------------------------|-------------------------|
--5--5-----5--5-----5--5--|--4--4-----4--4-----4--4--|-----4--4----------------|
--------------------------|--------------------------|--------------5--5--5----|

--------------------------|-------------------------|--------------------------|
--------------------------|-------------------------|--------------------------|
--4--4-----4--4-----4--4--|-----4--4----------------|--5--5-----5--5-----5--5--|
--------------------------|--------------5--5--5----|--------------------------|

-------------------------|--------------------------|-------------------------|
-------------------------|--------------------------|-------------------------|
-----5--5----------------|--5--5-----5--5-----5--5--|-----5--5----------------|
--------------2--2--2----|--------------------------|--------------2--2--2----|

--------------------------|-------------------------|--------------------------|
--------------------------|-------------------------|--------------------------|
--4--4-----4--4-----4--4--|-----4--4----------------|--4--4-----4--4-----4--4--|
--------------------------|--------------5--5--5----|--------------------------|

-------------------------|---------------------|-------------------|
-------------------------|---------------------|-------------------|
-----4--4----------------|--5--5---------------|-------------------|
--------------5--5--5----|---------------------|-------------------|

                                        CHORUS
-------------------|-------------------|--------------------------|
-------------------|-------------------|--------------------------|
-------------------|-------------------|--------------------------|
-------------------|-------------------|--2--2--2--2--2--2--2--2--|

--------------------------|--------------------------|
--------------------------|--------------------------|
--5--5--5--5--5--5--5--5--|--4--4--4--4--4--4--4--4--|
--------------------------|--------------------------|

--------------------------|--------------------------|
--------------------------|--------------------------|
--0--0--0--0--0--0--0--0--|--------------------------|
--------------------------|--2--2--2--2--2--2--2--2--|

--------------------------|--------------------------|
--------------------------|--------------------------|
--5--5--5--5--5--5--5--5--|--4--4--4--4--4--4--4--4--|
--------------------------|--------------------------|

--------------------------|--------------------------|-------------------------|
--------------------------|--------------------------|-------------------------|
--7--7--7--7--7--7--7--7--|--4--4-----4--4-----4--4--|-----4--4----------------|
--------------------------|--------------------------|--------------5--5--5----|

--------------------------|-------------------------|--------------------------|
--------------------------|-------------------------|--------------------------|
--4--4-----4--4-----4--4--|-----4--4----------------|--5--5-----5--5-----5--5--|
--------------------------|--------------5--5--5----|--------------------------|

--------------------------|--------------------------|
--------------4--4--4--4--|--------------------------|
-----5--5--5--------------|--5--5-----5--5-----5--5--|
--------------------------|--------------------------|

                           VERSE
--------------------------|--------------------------|-------------------------|
--------------4--4--4--4--|--------------------------|-------------------------|
-----5--5-----------------|--4--4-----4--4-----4--4--|-----4--4----------------|
--------------------------|--------------------------|--------------5--5--5----|

--------------------------|-------------------------|--------------------------|
--------------------------|-------------------------|--------------------------|
--4--4-----4--4-----4--4--|-----4--4----------------|--5--5-----5--5-----5--5--|
--------------------------|--------------5--5--5----|--------------------------|

--------------------------|--------------------------|
--------------4--4--4--4--|--------------------------|
-----5--5--5--------------|--5--5-----5--5-----5--5--|
--------------------------|--------------------------|

                          CHORUS
--------------------------|--------------------------|
--------------4--4--4--4--|--------------------------|
-----5--5-----------------|--------------------------|
--------------------------|--2--2--2--2--2--2--2--2--|

--------------------------|--------------------------|
--------------------------|--------------------------|
--5--5--5--5--5--5--5--5--|--4--4--4--4--4--4--4--4--|
--------------------------|--------------------------|

--------------------------|--------------------------|
--------------------------|--------------------------|
--0--0--0--0--0--0--0--0--|--------------------------|
--------------------------|--2--2--2--2--2--2--2--2--|

--------------------------|--------------------------|
--------------------------|--------------------------|
--5--5--5--5--5--5--5--5--|--4--4--4--4--4--4--4--4--|
--------------------------|--------------------------|

                           BRIDGE
--------------------------|--------------------------|-------------------------|
--------------------------|--------------------------|-------------------------|
--7--7--7--7--7--7--7--7--|--4--4-----4--4-----4--4--|-----4--4----------------|
--------------------------|--------------------------|--------------5--5--5----|

--------------------------|-------------------------|--------------------------|
--------------------------|-------------------------|--------------------------|
--4--4-----4--4-----4--4--|-----4--4----------------|--5--5-----5--5-----5--5--|
--------------------------|--------------5--5--5----|--------------------------|

--------------------------|--------------------------|
--------------4--4--4--4--|--------------------------|
-----5--5--5--------------|--5--5-----5--5-----5--5--|
--------------------------|--------------------------|

--------------------------|--------------------------|-------------------------|
--------------4--4--4--4--|--------------------------|-------------------------|
-----5--5-----------------|--4--4-----4--4-----4--4--|-----4--4----------------|
--------------------------|--------------------------|--------------5--5--5----|

                                                    CHORUS & OUTRO
--------------------------|-------------------------|--------------------------|
--------------------------|-------------------------|--------------------------|
--4--4-----4--4-----4--4--|-----4--4----------------|--------------------------|
--------------------------|--------------5--5--5----|--2--2--2--2--2--2--2--2--|

--------------------------|--------------------------|
--------------------------|--------------------------|
--5--5--5--5--5--5--5--5--|--4--4--4--4--4--4--4--4--|
--------------------------|--------------------------|

--------------------------|--------------------------|
--------------------------|--------------------------|
--0--0--0--0--0--0--0--0--|--------------------------|
--------------------------|--2--2--2--2--2--2--2--2--|

--------------------------|--------------------------|
--------------------------|--------------------------|
--5--5--5--5--5--5--5--5--|--4--4--4--4--4--4--4--4--|
--------------------------|--------------------------|

--------------------------|--------------------------|
--------------------------|--------------------------|
--7--7--7--7--7--7--7--7--|--------------------------|
--------------------------|--2--2--2--2--2--2--2--2--|

--------------------------|--------------------------|
--------------------------|--------------------------|
--5--5--5--5--5--5--5--5--|--4--4--4--4--4--4--4--4--|
--------------------------|--------------------------|

--------------------------|--------------------------|
--------------------------|--------------------------|
--0--0--0--0--0--0--0--0--|--------------------------|
--------------------------|--2--2--2--2--2--2--2--2--|

--------------------------|--------------------------|
--------------------------|--------------------------|
--5--5--5--5--5--5--5--5--|--4--4--4--4--4--4--4--4--|
--------------------------|--------------------------|

--------------------------|--------------------------|
--------------------------|--------------------------|
--7--7--7--7--7--7--7--7--|--------------------------|
--------------------------|--2--2--2--2--2--2--2--2--|

--------------------------|--------------------------|
--------------------------|--------------------------|
--5--5--5--5--5--5--5--5--|--4--4--4--4--4--4--4--4--|
--------------------------|--------------------------|

--------------------------|--------------------------|
--------------------------|--------------------------|
--0--0--0--0--0--0--0--0--|--------------------------|
--------------------------|--2--2--2--2--2--2--2--2--|

--------------------------|--------------------------|
--------------------------|--------------------------|
--5--5--5--5--5--5--5--5--|--4--4--4--4--4--4--4--4--|
--------------------------|--------------------------|

--------------------------|--------------------------|
--------------------------|--------------------------|
--7--7--7--7--7--7--7--7--|--------------------------|
--------------------------|--2--2--2--2--2--2--2--2--|

--------------------------|--------------------------|
--------------------------|--------------------------|
--5--5--5--5--5--5--5--5--|--4--4--4--4--4--4--4--4--|
--------------------------|--------------------------|

--------------------------|--------------------------|
--------------------------|--------------------------|
--0--0--0--0--0--0--0--0--|--------------------------|
--------------------------|--2--2--2--2--2--2--2--2--|

--------------------------|--------------------------|
--------------------------|--------------------------|
--5--5--5--5--5--5--5--5--|--4--4--4--4--4--4--4--4--|
--------------------------|--------------------------|

--------------------------|--------------------------|
--------------------------|--------------------------|
--7--7--7--7--7--7--7--7--|--------------------------|
--------------------------|--2--2--2--2--2--2--2--2--|

--------------------------|--------------------------|
--------------------------|--------------------------|
--5--5--5--5--5--5--5--5--|--4--4--4--4--4--4--4--4--|
--------------------------|--------------------------|

--------------------------|--------------------------|
--------------------------|--------------------------|
--0--0--0--0--0--0--0--0--|--------------------------|
--------------------------|--2--2--2--2--2--2--2--2--|

--------------------------|--------------------------|
--------------------------|--------------------------|
--5--5--5--5--5--5--5--5--|--4--4--4--4--4--4--4--4--|
--------------------------|--------------------------|

--------------------------|-------------------||
--------------------------|-------------------||
--7--7--7--7--7--7--7--7--|-------------------||
--------------------------|-------------------||
Suggest correction
Give kudos to tab author, rate the tab!
1 2 3 4 5
comments
print report bad tab
guest
You may want to rate the tab now too:
select rating
Wanna post a correction for this tab? Suggest correction