Oops, an error
Loading. Please wait.

Lets Get Out Of Here Tab

3,028 views 6 this week
no commentswrite comment
1 2 3 4 5
x 5
add to favorites
launch autoscroll
font size
0
reset
how to read this tab
guitar tuner
Autoscroll
slow
fast
+/-
esc
set tempo
stop
Difficulty
novice
---------------------------------------------------------------------------------------
                          LET'S GET OUT OF HERE - Les Savy Fav
---------------------------------------------------------------------------------------

Tabbed by: Hamish
Email: hamish.fyfe(at)gmail.com

  Intro/Main Riff

  Guitar 1

e||----------------|----------------|----------------|----------------|----------------|
b||----------------|-----9-9-7------|----------------|----------------|----------------|
g||-9-9-----9-9----|-9-9-------9-6-6|-6-6-6-6-6-9-8-8|-8-8-8-8-8-8-8-8|-9-9-----9-9----|
d||----------------|----------------|----------------|----------------|----------------|
a||----------------|----------------|----------------|----------------|----------------|
e||----------------|----------------|----------------|----------------|----------------|

  Guitar 2

e||----------------|-----9-9-7------|-----------7----|-----------7-7--|---5-5-5-5-5-5-5|
b||----------------|----------10-9-9|-9-9-9-9-9---7-7|-7-7-7-7-7-----9|-9--------------|
g||----------------|----------------|----------------|----------------|----------------|
d||----------------|----------------|----------------|----------------|----------------|
a||----------------|----------------|----------------|----------------|----------------|
e||----------------|----------------|----------------|----------------|----------------|



  Guitar 1

e|----------------||----------------|----------------|
b|----------------||----------------|-----9-9-7------|
g|-9-9-----9-9----||-9-9-----9-9----|-9-9-------9-6-6|
d|----------------||----------------|----------------|
a|----------------||----------------|----------------|
e|----------------||----------------|----------------|

  Guitar 2

e|-5-5-5-5-5-5-5-5||-5--------------|-----9-9-7------|
b|----------------||---9-9-9-9-9-9-9|-9-9------10-9-9|
g|----------------||----------------|----------------|
d|----------------||----------------|----------------|
a|----------------||----------------|----------------|
e|----------------||----------------|----------------|

 ...and so on and so forth etc.

  Chorus

   E  C#m  G#  A

e|-0---4---4---5--|
b|-0---5---4---5--|
g|-1---6---5---6--|
d|-2---6---6---7--|
a|-2---4---6---7--|
e|-0---4---4---5--|

 The bridge is the same chords with slightly different timing.

 That's most of the song. I still haven't figured out the break/solo bit
but I'll post it when I figure it out.
Suggest correction
comments
print report bad tab
guest
You may want to rate the tab now too:
select rating
Wanna post a correction for this tab? Suggest correction