Oops, an error
Loading. Please wait.

Patty Lee Tab

version 1
version 1

Whole song

Interactive

3,220 views 1 this week
no commentswrite comment
1 2 3 4 5
x 8
add to favorites
launch autoscroll
font size
0
reset
how to read this tab
guitar tuner
Autoscroll
slow
fast
+/-
esc
set tempo
stop
Author
Well, some parts of the song are hard to figure out.
This is what I have so far. Sorry for not having all of it.
If you have any questions you can reach me on www.myspace.com/i_love_interpol

Tuning: Standard

(intro)

e|-13-13-13-13-13-13-13-13-13-13---------13-13-13-13-13-13-13-13-13-13-------|
B|---------------------------------------------------------------------------|
G|---------------------------------------------------------------------------|
D|---------------------------------------------------------------------------|
A|---------------------------------------------------------------------------|
E|---------------------------------------------------------------------------|

e|-13-13-17-13-13-13-15-15-13-13---------13-13-17-13-13-13-15-15-13-13-------|
B|---------------------------------------------------------------------------|
G|---------------------------------------------------------------------------|
D|---------------------------------------------------------------------------|
A|---------------------------------------------------------------------------|
E|---------------------------------------------------------------------------|

e|--------13-13-13-13-13-13-15-13----------13-13-13-13-13-13-15-13-------------------|
B|----------------------------------13-13--13-13-13-13-13-13-13-13-------------------|
G|----------------------------------12-12--------------------------------------------|
D|-----------------------------------------------------------------------------------|
A|-----------------------------------------------------------------------------------|
E|-----------------------------------------------------------------------------------|

e|-13-13-17-13-13-13-15-15-13-13---------13-13-15-13-12----------------------|
B|------------------------------------------------------13-------------------|
G|---------------------------------------------------------------------------|
D|---------------------------------------------------------------------------|
A|---------------------------------------------------------------------------|
E|---------------------------------------------------------------------------|

"Patty Lee turn the lights on please..."

e|-13-13-13-13-13-13-13-13-13-13---------13-13-13-13-13-13-13-13-13-13-------|
B|---------------------------------------------------------------------------|
G|---------------------------------------------------------------------------|
D|---------------------------------------------------------------------------|
A|---------------------------------------------------------------------------|
E|---------------------------------------------------------------------------|

e|-13-13-17-13-13-13-15-15-13-13---------13-13-17-13-13-13-15-15-13-13-------|
B|---------------------------------------------------------------------------|
G|---------------------------------------------------------------------------|
D|---------------------------------------------------------------------------|
A|---------------------------------------------------------------------------|
E|---------------------------------------------------------------------------|

"Those were the last words her suitor spoke..."

e|--------13----------------------------------------------15-15-15-12-12-12--|
B|--13-15---15-13-----------------------15-15-15-13-13-13--------------------|
G|----------------14--14-14-14-12-12-12--------------------------------------|
D|---------------------------------------------------------------------------|
A|---------------------------------------------------------------------------|
E|---------------------------------------------------------------------------|

e|--------13------------12-12-12---------------------------------------------|
B|--13-15---15-13-------13-13-13---------------------------------------------|
G|----------------14---------------------------------------------------------|
D|---------------------------------------------------------------------------|
A|---------------------------------------------------------------------------|
E|---------------------------------------------------------------------------|

(chorus)

e|-13-13-13-13-13-13-13-13-13-13---------13-13-13-13-13-13-13-13-13-13-------|
B|---------------------------------------------------------------------------|
G|---------------------------------------------------------------------------|
D|---------------------------------------------------------------------------|
A|---------------------------------------------------------------------------|
E|---------------------------------------------------------------------------|

e|-13-13-17-13-13-13-15-15-13-13---------13-13-17-13-13-13-15-15-13-13-------|
B|---------------------------------------------------------------------------|
G|---------------------------------------------------------------------------|
D|---------------------------------------------------------------------------|
A|---------------------------------------------------------------------------|
E|---------------------------------------------------------------------------|


"Patty Lee sloughed her skin..."

e|-----13----13----13----13----13----13----13----13--------------------------|
B|--17----17----17----17----14----14----15----15-----------------------------|
G|---------------------------------------------------------------------------|
D|---------------------------------------------------------------------------|
A|---------------------------------------------------------------------------|
E|---------------------------------------------------------------------------|

(solo)

e|------------------------------8-12-8---------------------------------------|
B|--5----------5-6--------5/10---------10--8-8-10-10--------------5-6-8b-7-6-|
G|--7b5--5-7-------7----------------------------------9-10----5-7------------|
D|-------------------7-------------------------------------------------------|
A|---------------------------------------------------------------------------|
E|---------------------------------------------------------------------------|

(I think its a harmonic at the end of the solo. I was able to get it by bending the G string
on fret 7. I'm sorry if it doesn't make sense.)

This is all I have.
Suggest correction
comments
print report bad tab
guest
You may want to rate the tab now too:
select rating
Wanna post a correction for this tab? Suggest correction