Oops, an error
Loading. Please wait.

Raging In The Plague Age Bass Tab

731 views 1 this week
no commentswrite comment
1 2 3 4 5
1 last vote to show rating
add to favorites
launch autoscroll
font size
0
reset
guitar tuner
×
Best way to learn
"Raging In The Plague Age"
Autoscroll
slow
fast
+/-
esc
set tempo
stop
Author
Band: LES SAVY FAV
Song: Raging in the Plague Age

Bassist: Syd Butler
Tabbed by: Sanest
Standard Tuning: EADG

/ = slide

Intro
G:-----------------|
D:-----------------|    X4
A:55555555355555555|
E:-----------------|

End of intro
G:---------------------|
D:---------------------|
A:5/17-17-17-17-17-17--|
E:---------------------|

Verse
Being the king was pretty cool...
G:---------------------|
D:----5555-3333--------|
A:5555---------3333-4--|
E:---------------------|

Pre-verse/pre-chorus
G:-----------------|
D:-----------------|    X4
A:55555555355555555|
E:-----------------|

G:---------------------|
D:---------------------|
A:5/17-17-17-17-17-17--|
E:---------------------|

Pause
Draw up the drawbridge, draw down the blinds...

Verse 2
G:-------------------------|
D:-------5555-3333---------|
A:3455555---------3333-4---|
E:-------------------------|

Bridge/Chorus
I hold my breath, you hit my chest
G:-------------------|
D:-5-3---------------|
A:--5-3-1-3-55555555-|
E:-------------------|

Verse 3/Guitar solo
You stumble from the arms...
G:----------------------|
D:55--33----------------|
A:--55--33333-577775555-|
E:----------------------|

Finish on
G:---------------------|
D:---------------------|
A:555555555555555555555|
E:---------------------|
Suggest correction
Give kudos to tab author, rate the tab!
1 2 3 4 5
comments
print report bad tab
guest
You may want to rate the tab now too:
select rating
Wanna post a correction for this tab? Suggest correction