Oops, an error
Loading. Please wait.

The Equestrian Tab

2,425 views 3 this week
no commentswrite comment
1 2 3 4 5
x 3
add to favorites
launch autoscroll
font size
0
reset
how to read this tab
guitar tuner
Autoscroll
slow
fast
+/-
esc
set tempo
stop
Author
tab by aelx

intro in A F C
-----------------------------------------------------|
-------------------------------------5-5-------------|
-2-0-2-3-2-0-2-0-2-3-2-0-320----2-2--5-5-------------|
-2-0-2-3-2-0-2-0-2-3-2-0-320----3-3--5-5-------------|
-0-0-0---0-0-0-0-0---0-0--------3-3--3-3-------------|
--------------------------------1-1------------------|

rythm fig.1
A
------------------------------------------------------|
------------------------------------------------------|
-2-2--------------------------------------------------|
-2-2--------------------------------------------------|
-0-0-333333333333333 (harmonics)----------------------|repeat this and back to F C
------------------------------------------------------|

repeat 3x
then it will be

D x5777xx
A# 6887650 <--- play with thumb and let ring high E

the little riff to add is this :

E-----------------------------------|
B--5b6------------------------------|
G-----7-6~~~------------------------|
D-----------------------------------|
A-----------------------------------|
E-----------------------------------|


E-----6-----------------------------|
B--5b6--7b8r7-6~~~~-----------------|
G-------7b8r7-6~~~~-----------------|
D-----------------------------------|
A-----------------------------------|
E-----------------------------------|


D >>> A# (13th fret)
D >>> A# (13th fret) A (12th fret)


then this, used on the "easy now, easy now" part of the song

C C# something
----------------------------------------|
----------------------------------------|
-5-------------------6------------------|
-5-------------------7------------------|repeat 2x
-x---------------5---x------------------|
-8-----------5-8-----9------------------|

then D x5777xx
guit.2 does xx077x


then powerchords

A# F > F(8th fret) C D

back the A rythm fig.1 and repeat some parts

at the end instead of
A# F > F(8th fret) C D
it's something like
A# F C F A# F > F(8th fret) C D


And end with Rythm Fig.1, finish on A
Suggest correction
Give kudos to tab author, rate the tab!
1 2 3 4 5
comments
print report bad tab
guest
You may want to rate the tab now too:
select rating
Wanna post a correction for this tab? Suggest correction