Oops, an error
Loading. Please wait.

The Lowest Bitter Bass Tab

7 views 3 this week
no commentswrite comment
1 2 3 4 5
2 more votes to show rating
add to favorites
launch autoscroll
font size
0
reset
guitar tuner
×
Best way to learn
"The Lowest Bitter"
Autoscroll
slow
fast
+/-
esc
set tempo
stop
Author
Difficulty
[Verse 1]
G|-------------------------------------------------------------------|
D|-------------------------------------------------------------------|
A|------------------3-----3---3-3-5-----------------5-----5---5-5-3--|
E|--1-----1---1-1-1-----------------3-----3---3-3-3------------------|

G|-------------------------------------------------------------------|
D|-------------------------------------------------------------------|
A|------------------3-----3---3-3-5---------------3-5-----5---5-5----|(x2)
E|--1-----1---1-1-1-----------------3-----3---3-3--------------------|

G|-------------------------------------------------------------------|
D|-------------------------------------------------------------------|
A|------------------3-----3---3-3-5---------------3-5-----5---5-3----|
E|--1-----1---1-1-1-----------------3-----3---3-3--------------------|

G|-------------------------------------------------------------------|
D|-------------------------------------------------------------------|
A|------------------3-----3---3-3-5-----------------5-----5---5-5----|
E|--1-----1---1-1-1-----------------3-----3---3-3-3------------------|

[Chorus 1]
G|-------------------------------------------------------------------|
D|-------------------------------------------------------------------|
A|------------------3-----3---3-3-5-----------------5-----5---5-5-3--|(x2)
E|--1-----1---1-1-1-----------------3-----3---3-3-3------------------|

G|-------------------------------------------------------------------|
D|-------------------------------------------------------------------|
A|------------------3-----3---3-3-5---------------3-5-----5---5-3----|(x2)
E|--1-----1---1-1-1-----------------3-----3---3-3--------------------|

G|-------------------------------------------------------------------|
D|-------------------------------------------------------------------|
A|------------------3-----3---3-3-5-----------------5-----5---5-5-3--|
E|--1-----1---1-1-1-----------------3-----3---3-3-3------------------|

[Verse 2]
G|-------------------------------------------------------------------|
D|-------------------------------------------------------------------|
A|------------------3-----3---3-3-5-----------------5-----5---5-5----|
E|--1-----1---1-1-1-----------------3-----3---3-3-3------------------|

G|-------------------------------------------------------------------|
D|-------------------------------------------------------------------|
A|------------------3-----3---3-3-5---------------3-5-----5---5-3----|
E|--1-----1---1-1-1-----------------3-----3---3-3--------------------|

G|-------------------------------------------------------------------|
D|-------------------------------------------------------------------|
A|------------------3-----3---3-3-5-----------------5-----5---5-3----|
E|--1-----1---1-1-1-----------------3-----3---3-3-3------------------|

G|-------------------------------------------------------------------|
D|-------------------------------------------------------------------|
A|------------------3-----3---3-3-5-----------------5-----5---5-5----|
E|--1-----1---1-1-1-----------------3-----3---3-3-3------------------|

[Chorus 2]
G|-------------------------------------------------------------------|
D|-------------------------------------------------------------------|
A|------------------3-----3---3-3-5-----------------5-----5---5-3----|
E|--1-----1---1-1-1-----------------3-----3---3-3-3------------------|

G|-------------------------------------------------------------------|
D|-------------------------------------------------------------------|
A|------------------3-----3---3-3-5---------------3-5-----5---5-3----|(x2)
E|--1-----1---1-1-1-----------------3-----3---3-3--------------------|

G|-------------------------------------------------------------------|
D|-------------------------------------------------------------------|
A|------------------3-----3---3-3-5-----------------5-----5---5-5-5--|
E|--1-----1---1-1-1-----------------3-----3---3-3-3------------------|

[Bridge]
G|-------------------------------------------------------------------|
D|-------------------------------------------------------------------|
A|--0-0-0-0-0-0-0-0-0-0-0-0-0-0-0-0-3-3-3-3-3-3-3-3-3-3-3-3-3-3-3-3--|
E|-------------------------------------------------------------------|
                                                                     (x2)
G|-------------------------------------------------------------------|
D|-------------------------------------------------------------------|
A|----------------------------------0-0-0-0-0-0-0-0------------------|
E|--1-1-1-1-1-1-1-1-1-1-1-1-1-1-1-1-----------------3-3-3-3-3-3-3-3--|

G|-------------------------------------------------------------------|
D|-------------------------------------------------------------------|
A|--0-0-0-0-0-0-0-0-0-0-0-0-0-0-0-0-3-3-3-3-3-3-3-3-3-3-3-3-3-3-3-3--|
E|-------------------------------------------------------------------|
                                                                     (x2)
G|-------------------------------------------------------------------|
D|-------------------------------------------------------------------|
A|--5-5-5-5-5-5-5-5-5-5-5-5-5-5-5-5----------------------------------|
E|----------------------------------3-3-3-3-3-3-3-3-4-4-4-4-4-4-4-4--|

[Chorus 3]
G|-------------------------------------------------------------------|
D|-------------------------------------------------------------------|
A|------------------3-----3---3-3-5-----------------5-----5---5-3----|
E|--1-----1---1-1-1-----------------3-----3---3-3-3------------------|

G|-------------------------------------------------------------------|
D|-------------------------------------------------------------------|
A|------------------3-----3---3-3-5-----------------5-----5---5-5-3--|
E|--1-----1---1-1-1-----------------3-----3---3-3-3------------------|

G|-------------------------------------------------------------------|
D|-------------------------------------------------------------------|
A|------------------3-----3---3-3-5---------------3-5-----5---5-3----|
E|--1-----1---1-1-1-----------------3-----3---3-3--------------------|

G|-------------------------------------------------------------------|
D|-------------------------------------------------------------------|
A|------------------3-----3---3-3-5-----------------5-5---5-5-5-5-3--|
E|--1-----1---1-1-1-----------------3-----3---3-3-3------------------|

[Bass change]
G|-------------------------------------------------------------------|
D|-------------------------------------------------------------------|
A|----------------------3---3-3-3-3---------------------5---5-5-5-5--|(x2)
E|------1---1-1-1-1---------------------3---3-3-3-3------------------|

G|-------------------------------------------------------------------|
D|-------------------------------------------------------------------|
A|------------------3---3---3-3-3-5-----------------5---5---5-5-5----|
E|------1---1-1-1-1-----------------3---3---3-3-3-3------------------|

G|-------------------------------------------------------------------|
D|-------------------------------------------------------------------|
A|------------------3---3---3-3-3-5-----------------5---5---5-3-3----|
E|--1---1---1-1-1-1-----------------3---3---3-3-3-3------------------|

G|-------------------------------------------------------------------|
D|-------------------------------------------------------------------|
A|------------------3---3---3-3-3-5-----------------5---5---5-5-3----|
E|--1---1---1-1-1-1-----------------3---3---3-3-3-3------------------|

G|-------------------------------------------------------------------|
D|-------------------------------------------------------------------|
A|------------------3---3---3-3-3-5-----------------5---5---5-5-5----|
E|--1---1---1-1-1-1-----------------3---3---3-3-3-3------------------|

G|-------------------------------------------------------------------|
D|-------------------------------------------------------------------|
A|----------------------3---3-3-3-3---------------------5---5-5-5-5--|(x2)
E|------1---1-1-1-1---------------------3---3-3-3-3------------------|
Suggest correction
Give kudos to tab author, rate the tab!
1 2 3 4 5
comments
print report bad tab
guest
You may want to rate the tab now too:
select rating
Wanna post a correction for this tab? Suggest correction