Oops, an error
Loading. Please wait.

Well Make A Lover Of You Tab

1,656 views 3 this week
no commentswrite comment
1 2 3 4 5
x 3
add to favorites
launch autoscroll
font size
0
reset
how to read this tab
guitar tuner
×
Best way to learn
"Well Make A Lover Of You"
Autoscroll
slow
fast
+/-
esc
set tempo
stop
Author
LES SAVY FAV: We'll Make A Lover Of You

Intro/verse:
e----------------------------------------------|
B-7--7--7-7-x-7---------------12--12-----------|
G-7--7--7-7-x-7--5-4-0-4-4----11--11-----------|
D----------------------------------------------|
A----------------------------------------------|
E----------------------------------------------| x5

Bridge:
e----------------------------------------------|
B-7--7--7-7-x-7--------------------------------|
G-7--7--7-7-x-7--5-4-0-4-4-4-4-4-4-------------|
D----------------------------------------------|
A----------------------------------------------|
E----------------------------------------------|

Guitar One:
e----------------------------------------------|
B----------------------------------------------|
G-7(x14)-5-5-0-4(x14)--------------------------|
D----------------------------------------------|
A----------------------------------------------|
E----------------------------------------------| x4

Guitar Two after once through:
e----------------------------------------------|
B-10(x8)-7(x8)-8(x16)--------------------------|
G----------------------------------------------|
D----------------------------------------------|
A----------------------------------------------|
E----------------------------------------------| x3

Bridge/fill:
e----------------------------------------------|
B------------7---------------------------------|
G-7--7-7-7-9---9-7-----------------------------|
D----------------------------------------------|
A----------------------------------------------|
E----------------------------------------------|

Chorus:
e----------------------------------------------|
B---------------------------7-9----------------|
G-7-7-7-7-9-9-9-9-----------7-7----------------|
D-----------------7-7-7-7-9--------------------|
A----------------------------------------------|
E----------------------------------------------| x3

e-----------7-7-----7--------------------------|
B-7-7--9-9--8-8-9-9-8-9------------------------|
G-7-7--7-7------7-7---7------------------------|
D----------------------------------------------|
A----------------------------------------------|
E----------------------------------------------|

Intro/verse x4
Bridge x4
Bridge fill
Chorus x3

Then...
e----------------------------------------------|
B-----------------10-10-10-10-8-7-7------------|
G-7-7-7-7-9-9-9-9---------------7-9------------|
D----------------------------------------------|
A----------------------------------------------|
E----------------------------------------------|

Break down (x2):
e----------------------------------------------|
B----------------------------------------------|
G-7(x13)-5-5-0-4(x7)-3(x6)-7-7-----------------|
D----------------------------------------------|
A----------------------------------------------|
E----------------------------------------------|

e----------------------------------------------|
B----------------------------------------------|
G-7(x13)-5-5-0-4(x7)-2(x5)-4-4-0---------------|
D----------------------------------------------|
A----------------------------------------------|
E----------------------------------------------| 

Outro (Guitar One):
e--------------------|--------------------------|
B---------12---------|---------10---------------|
G-11-9-11----11-9-11-|-11-9-11----11-9-11-------|
D--------------------|--------------------------|
A--------------------|--------------------------|
E--------------------|--------------------------| To end.

Guitar Two:
e----------------------------------------------|
B----------------------------------------------|
G-12--14--8--11--------------------------------|
D----------------------------------------------|
A-10--12--6--9---------------------------------|
E----------------------------------------------| x3.

End on:
e---|
B---|
G-8-|
D---|
A-6-|
E---|


Suggest correction
Give kudos to tab author, rate the tab!
1 2 3 4 5
comments
print report bad tab
guest
You may want to rate the tab now too:
select rating
Wanna post a correction for this tab? Suggest correction