Oops, an error
Loading. Please wait.

Yawn Yawn Yawn Tab

787 views 1 this week
no commentswrite comment
1 2 3 4 5
2 more votes to show rating
add to favorites
launch autoscroll
font size
0
reset
how to read this tab
guitar tuner
×
Best way to learn
"Yawn Yawn Yawn"
Autoscroll
slow
fast
+/-
esc
set tempo
stop
Author
LES SAVY FAV - Yawn Yawn Yawn

Intro/Verse:
e|-----------------------------------------------------------------|
B|-----------------------------------------------------------------|
G|-------5-5-5-5-5---5-------------------5-5-5-5-5---5-------------|
D|---5-7-7-7-7-7-7-7-----5-5-5-5-5---5-7-7-7-7-7-7-7-----5-5-5-5-5-|
A|-7-------------------7-7-7-7-7-7-7-------------------7-7-7-7-7-7-|
E|-----------------------------------------------------------------| x2

e|-------------------------------------------------------------------|
B|-------------------------------------------------------------------|
G|-------------------------------------------------------------------|
D|-------7-7-7-7-7---7---5-5-5-5-5-------7-7-7-7-7---7---5-5-5-5-5-5-|
A|-5-7-8-8-8-8-8-8-8---7-7-7-7-7-7-5-7-8-8-8-8-8-8-8---7-7-7-7-7-7-7-|
E|-------------------------------------------------------------------|

Pre-chorus:
e|----------------------------------------------------------------------|
B|----------------------------------------------------------------------|
G|----------------------------------------------------------------------|
D|-------7-7-7-7-7---7---5-5-5-5-5-------7-7-7-7-7---7----5---5---6---6-|
A|-5-7-8-8-8-8-8-8-8---7-7-7-7-7-7-5-7-8-8-8-8-8-8-8---7-7--7---7---7---|
E|----------------------------------------------------------------------|

Chorus - Guitar 1:
e|-------------------------------------x-x-------x-x-------|
B|-------------------------------------x-x-------x-x-------|
G|-----7---7-------7---7-------6---6---x-x-10-10-x-x-12-12-|
D|-------------------------------------x-x-------x-x-------|
A|-8-8---8---8-7-7---7---7-4-4---4---4-x-x-8--8--x-x-10-10-|
E|-------------------------------------x-x-------x-x-------|x4
Mix it up with this occasionally:
e|-------------------------------------------------------------|
B|-------------------------------------------10-10-------12-12-|
G|-----7---7-------7---7-------6---6---------10-10-------12-12-|
D|-------------------------------------------------------------|
A|-8-8---8---8-7-7---7---7-4-4---4---4-------------------------|
E|-------------------------------------10-10-------12-12-------|

Guitar 2:
e|---------------------------------------------|
B|---------------------------------------------|
G|-----7---7-------7---7-------6---6-------7---|
D|---------------------------------------------|
A|-8-8---8---8-7-7---7---7-4-4---4---4-5-5---5-|
E|---------------------------------------------|

Post-chorus:
e|-8--8--8--8--8--8--8-10---------------8--8--8--8--8--8-10-----------------|
B|-10-10-10-10-10-10-1010-8-8-8-8-8-810-10-10-10-10-10-1010-8-8-8-8-8-8-810-|
G|------------------------9-9-9-9-9-99----------------------9-9-9-9-9-9-99--|
D|--------------------------------------------------------------------------|
A|--------------------------------------------------------------------------|
E|--------------------------------------------------------------------------|

e|-8--8--8--8--8--8-10-----------------8--8--8--8--8--8-10---------------|
B|-10-10-10-10-10-1010-8-8-8-8-8-8-810-10-10-10-10-10-1010-8-8-8-8-9-9-9-|
G|---------------------9-9-9-9-9-9-99----------------------9-9-9-9-9-9-9-|
D|-----------------------------------------------------------------------|
A|-----------------------------------------------------------------------|
E|-----------------------------------------------------------------------|

Repeat verse with this alteration: 
e|-----------------------------------------------------------------|
B|-----------------------------------------------------------------|
G|-------5-5-5-5-5---5-------------------5-5-5-5-5---5-------------|
D|---5-7-7-7-7-7-7-7-----5-5-5-5-5---5-7-7-7-7-7-7-7-----5-5-5-5-5-|
A|-7-------------------7-7-7-7-7-7-7-------------------7-7-7-7-7-7-|
E|-----------------------------------------------------------------| x2

e|----------------------------------------------------------------------|
B|----------------------------------------------------------------------|
G|-------5-5-5-5-5---9-9-9-9-9-9----------------------------------------|
D|-------7-7-7-7-7---7-7-7-7-7-7-------7-7-7-7-7---7----5-5-5-5-6-6-6-6-|
A|-5-7-8-----------8-------------5-7-8-8-8-8-8-8-8---7-7-7-7-7-7-7-7-7--|
E|----------------------------------------------------------------------|

Chorus:
e|-------------------------------------x-x-------x-x-------|
B|-------------------------------------x-x-------x-x-------|
G|-----7---7-------7---7-------6---6---x-x-10-10-x-x-12-12-|
D|-------------------------------------x-x-------x-x-------|
A|-8-8---8---8-7-7---7---7-4-4---4---4-x-x-8--8--x-x-10-10-|
E|-------------------------------------x-x-------x-x-------|x4

e|-x-x-------x-x-------x-x-------x-x----------------|
B|-x-x-------x-x-------x-x-------x-x----------------|
G|-x-x-14-14-x-x-12-12-x-x-14-14-x-x-12-12-66666666-|
D|-x-x-------x-x-------x-x-------x-x-------66666666-|
A|-x-x-12-12-x-x-10-10-x-x-12-12-x-x-10-10-44444444-|
E|-x-x-------x-x-------x-x-------x-x----------------|

Repeat chorus and end on:
e|-x-x-------x-x-------x-x-------x-x------------------|
B|-x-x-------x-x-------x-x-------x-x------------------|
G|-x-x-14-14-x-x-12-12-x-x-14-14-x-x-12-12-66666666-7-|
D|-x-x-------x-x-------x-x-------x-x-------66666666-7-|
A|-x-x-12-12-x-x-10-10-x-x-12-12-x-x-10-10-44444444-5-|
E|-x-x-------x-x-------x-x-------x-x------------------|
Suggest correction
Give kudos to tab author, rate the tab!
1 2 3 4 5
comments
print report bad tab
guest
You may want to rate the tab now too:
select rating
Wanna post a correction for this tab? Suggest correction