Oops, an error
Loading. Please wait.

Grand Champion tab

34 views 9 this week
no commentswrite comment
1 2 3 4 5
3 more votes to show rating
add to favorites
×
Save as Personal and add changes to this tab that will be seen only by you. Learn more ›
×
You can save this tab as Personal to edit and correct it or add notes. All changes will be seen only by you. Learn more »
launch autoscroll
font size
0
reset
how to read this tab
guitar tuner
edit
Autoscroll
slow
fast
+/-
esc
set tempo
stop
About this tab version
The song chords including briges and small solo. Was this info helpful? Yes No
[Chords]
   D  F#  G  A  F  Em
e|-2--2---3--0--1--0--|
B|-3--2---3--2--1--0--|
G|-2--2---0--2--1--0--|
D|-0--3---0--2--2--2--|
A|----4---2--0--3--2--|
E|----2---3-----1--0--|

[Intro] 
D 
(4 mesures)

[Verse]
D 
Comme un carnivore version semi-rude
F#     G 
Un léopard, tu as
D 
L'habit bicolore et de l'attitude
F#         G 
Un seul regard rivé
A        D 
Sur la lumière, patient
F#          G 
Comme un guépard, l'instant
A                D 
Quelle tourne au vert, c'est bien
F#           G               D 
Plus qu'un départ, c'est ton métier
Chorus]
D 
Grand champion (grand champion)
G 
Grand champion (grand champion)
F         A 
International de course
D 
Grand champion (grand champion)
G 
Grand champion (grand champion)
F         A 
International de course

[Bridge]
  D
e|2---------3-2-0-|----------------|----------------|----------------|
B|3---------------|----------3-2-0-|------------2-3-|----------------|
G|2---------------|----------------|----------------|----------------|
D|0---------------|----------------|----------------|----------------|
A|----------------|----------------|----------------|----------------|
E|----------------|----------------|----------------|----------------|

e|----------------|----------------|----------------|----------------|
B|----------------|----------------|----------------|----------------|
G|----------------|2-2-2-2-2-2-2-2-|----------------|----------------|
D|2-2-2-2-2-2-2-2-|----------------|0-0-0-0-0-0-0-0-|2-2-2-2-2-2-2-2-|
A|----------------|----------------|----------------|----------------|
E|----------------|----------------|----------------|----------------|
pm- - - - - - - -  - - - - - - - -  - - - - - - - -  - - - - - - - - 

e|----3-----3-----|----5-----5-----|------------10---------|----------------|
B|----------------|----------------|12-12-10-12----12-10-7-|----------------|
G|--------------2-|--------2-------|-----------------------|----------------|
D|2-------2-------|----------------|-----------------------|----------------|
A|----------------|----------------|-----------------------|----------------|
E|----------------|----------------|-----------------------|----------------|

[Verse]
D
Tu appuies à fond sur le champignon
F#     G 
Tu accélères et tu
D
Traverses le peloton, première position
F#            G 
Vite comme l'éclair, que dis-je
A             D 
Vite comme du feu, derrière
F#       G 
Tes adversaires te trouvent
A             D 
Bien plus que mieux, toi tu
F#           G 
Tu sais quoi faire, tu roules
A       D 
Sur tes peneus, les bras
F#         G               D
Dedans les airs, c'est ton métier

[Chorus]
D 
Grand champion (grand champion)
G 
Grand champion (grand champion)
F         A 
International de course
D 
Grand champion (grand champion)
G 
Grand champion (grand champion)
F         A 
International de course

[Bridge]
  D
e|2---------3-2-0-|----------------|----------------|----------------|
B|3---------------|----------3-2-0-|------------2-3-|----------------|
G|2---------------|----------------|----------------|----------------|
D|0---------------|----------------|----------------|----------------|
A|----------------|----------------|----------------|----------------|
E|----------------|----------------|----------------|----------------|

e|----------------|----------------|----------------|----------------|
B|----------------|----------------|----------------|----------------|
G|----------------|2-2-2-2-2-2-2-2-|----------------|----------------|
D|2-2-2-2-2-2-2-2-|----------------|0-0-0-0-0-0-0-0-|2-2-2-2-2-2-2-2-|
A|----------------|----------------|----------------|----------------|
E|----------------|----------------|----------------|----------------|
pm- - - - - - - -  - - - - - - - -  - - - - - - - -  - - - - - - - - 

e|----3-----3-----|----5-----5-----|------------10---------|----------------|
B|----------------|----------------|12-12-10-12----12-10-7-|----------------|
G|--------------2-|--------2-------|-----------------------|----------------|
D|2-------2-------|----------------|-----------------------|----------------|
A|----------------|----------------|-----------------------|----------------|
E|----------------|----------------|-----------------------|----------------|

[Solo]
e|-----------------------|-----------10---------|15-15-15-15-15-14-12----|-----------------------|
B|------------10------12-|--12-10-12----12-10---|15-15-15-15-15-------14-|--14-14-14-14-12-------|
G|-11-11-9-11----11-9----|----------------------|------------------------|-----------------14-12-|
D|-----------------------|----------------------|------------------------|-----------------------|
A|-----------------------|----------------------|------------------------|-----------------------|
E|-----------------------|----------------------|------------------------|-----------------------|
(play the solo twice witch no rest)

[Outro]
D 
Grand champion (grand champion)
G 
Grand champion (grand champion)
Em         A 
International de course
D 
Grand champion (grand champion)
G 
Grand champion (grand champion)
Em         A 
International        de course
Suggest correction
Creating personal tab
Creating personal tab
You can edit any tab online and save it as your Personal.

You can edit, replace or remove any tab part or add personal notes – all changes will be seen only by you.

Personal tabs can be accessed anytime from any device, even offline.
Learn more »
Give kudos to tab author, rate the tab!
1 2 3 4 5
comments
print report bad tab
guest
You may want to rate the tab now too:
select rating
Wanna post a correction for this tab? Suggest correction