Oops, an error
Loading. Please wait.

Ho Ma Jolie Tab

630 views 1 this week
no commentswrite comment
1 2 3 4 5
please rate
add to favorites
launch autoscroll
font size
0
reset
how to read this tab
guitar tuner
Autoscroll
slow
fast
+/-
esc
set tempo
stop
Help us to improve Ultimate-Guitar.com Take our survey!
×
Author
  Ho ma jolie
Les Trois Accords
--------------------
Intro:
C Am F G C x2

C			Am	F	G	C
La fille plus belle que toé n'est pas icitte à soir
C			Am	F	G		C
La fille plus belle que toé je ne l'ai jamais rencontré

Refrain:
C	F
Oh ma jolie
G        F        C
Je suis beau
C		F
Quand je suis gros
F				G
Je suis beau quand je suis gros
		C
Laisse-moi manger

C Am F G C

C			Am
Les carottes du bonheur
F			G
Ne sont pas loin sous la terre
C			Am
Les carottes du bonheur-re
F				G
Nous seront deux pour les récolter

(Refrain)

Solo chord:
C Am F G C x2
Solo :
---------------------------------5------5------5----------------------------|
---------------------------------5------5------5----------------------------|
---------------------------5-7B-----7B-----7B-----7BD--5--5-H-7-P-5-----5---|
-----------------7-7-5-7--------------------------------------------7-------|
-3-3--5-S-7--5-3------------------------------------------------------------|
----------------------------------------------------------------------------|


---------5------------------------------------------------------------------|
------------8-5-------------------------------------------------------------|
-5-5-7B----------7BD---5-6----------8TP--7-5-----5--------------------------|
----------------------------7-7-7-----------7-------------------------------|
----------------------------------------------------------------------------|
----------------------------------------------------------------------------|


(N/C)
La fille plus belle que toé n'est pas icitte à soir
La fille plus belle que toé je ne l'ai jamais rencontré

(Refrain) x2

S=Slide
B=Bend(full)
BD=Bend down
H=hammer
P=pull off
TP=Tremolo Picking
Suggest correction
What's this?
You can suggest a correction to this tab. Community and Mods will review your correction and vote to approve or reject it.
comments
We did not receive enough feedback on this tab! Please rate:
print report bad tab
1 2 3 4 5
guest
You may want to rate the tab now too:
select rating
Please do not post tabs as comments. Select "correction" instead!