Oops, an error
Loading. Please wait.

Ton Avion Chords

4,055 views 3 this week
no commentswrite comment
1 2 3 4 5
3 more votes to show rating
add to favorites
launch autoscroll
font size
0
reset
transpose
0
reset
display chords
guitar tuner
Autoscroll
slow
fast
+/-
esc
set tempo
stop
Help us to improve Ultimate-Guitar.com Take our survey!
×
Author
Difficulty
novice
TON AVION- PAR LES TROIS ACCORDS - GRANDS CHAMPION INTERNATIONAL DE COURSE

This is my first attempt, so be nice. Thx. Any questions, please e-mail me: nana_ness@hotmail.com

e-0-----0--1-----3-----0-----1--|
b-1-----1--1-----3-----1-----1--|
G-0-----2--2-----0-----2-----2--|
A-2-----2--3-----0-----2-----3--|
D-3-----0--3-----2-----0-----3--|
E-0-----0--1-----3-----0-----1--|


e-0--------------------------0----1-|
b-1--------------------------1----1-|
G-0--------------------------2----2-|
A-2--------------------------2----3-|
D-3--------------------------0----3-|
E-0--------------------------0----1-|
  Non non, ne prends pas ton avion


e-1--------3-------------0----|
b-1--------3-------------1----|
G-2--------0-------------2----|
A-3--------0-------------2----|
D-3--------2-------------0----|
E-1--------3-------------0----|
  Quand tu pars tout est long

e-0--------1----|
b-1--------1----|
G-2--------2----|
A-2--------3----|
D-0--------3----|
E-0--------1----|
  Tout est long 

e-0--------------------------0----1-|
b-1--------------------------1----1-|
G-0--------------------------2----2-|
A-2--------------------------2----3-|
D-3--------------------------0----3-|
E-0--------------------------0----1-|
  Non non, ne prends pas ton avion


e-1--------3-------------0----|
b-1--------3-------------1----|
G-2--------0-------------2----|
A-3--------0-------------2----|
D-3--------2-------------0----|
E-1--------3-------------0----|
  Quand tu pars tout est long

e-0--------1----|
b-1--------1----|
G-2--------2----|
A-2--------3----|
D-0--------3----|
E-0--------1----|
  Tout est long 

e-0----0----0----0---|
b-1----1----1----1---|
G-0----2----0----2---|
A-2----2----2----2---|
D-3----0----3----0---|
E-0----0----0----0---|


e-1--------------------------|
b-3--------------------------|
G-2--------------------------|
A-0--------------------------|
D-0--------------------------|
E-x--------------------------|
  En sortant de l’aéroport


e-1--------------------------|
b-0--------------------------|
G-0--------------------------|
A-0--------------------------|
D-2--------------------------|
E-3--------------------------|
  Je retournerai à l’endroit


e-0----------------------------|
b-0----------------------------|
G-1----------------------------|
A-2----------------------------|
D-2----------------------------|
E-0----------------------------|
  Où tu m’as dit je t’aime fort


e-0--------------0-------------|
b-2--------------2-------------|
G-2--------------0-------------|
A-2--------------2-------------|
D-0--------------0-------------|
E-0--------------2-------------|
  Où tu m’avais dit que parfois


e-1--------------------------|
b-3--------------------------|
G-2--------------------------|
A-0--------------------------|
D-0--------------------------|
E-x--------------------------|
  Tu aimais renifler l’odeur

e-1---------------------------|
b-0---------------------------|
G-0---------------------------|
A-0---------------------------|
D-2---------------------------|
E-3---------------------------|
  De mes mitaines à 3 couleurs

e-1-----------------3---------|
b-1-----------------3---------|
G-2-----------------0---------|
A-3-----------------0---------|
D-3-----------------2---------|
E-1-----------------3---------|
  C’était avant les détergents


e-0--------------------------0----1-|
b-1--------------------------1----1-|
G-0--------------------------2----2-|
A-2--------------------------2----3-|
D-3--------------------------0----3-|
E-0--------------------------0----1-|
  Non non, ne prends pas ton avion


e-1--------3-------------0----|
b-1--------3-------------1----|
G-2--------0-------------2----|
A-3--------0-------------2----|
D-3--------2-------------0----|
E-1--------3-------------0----|
  Quand tu pars tout est long

e-0--------1----|
b-1--------1----|
G-2--------2----|
A-2--------3----|
D-0--------3----|
E-0--------1----|
  Tout est long 


e-0--------------------------0----1-|
b-1--------------------------1----1-|
G-0--------------------------2----2-|
A-2--------------------------2----3-|
D-3--------------------------0----3-|
E-0--------------------------0----1-|
  Non non, ne prends pas ton avion


e-1--------3-------------0----|
b-1--------3-------------1----|
G-2--------0-------------2----|
A-3--------0-------------2----|
D-3--------2-------------0----|
E-1--------3-------------0----|
  Quand tu pars tout est long

e-0--------1----|
b-1--------1----|
G-2--------2----|
A-2--------3----|
D-0--------3----|
E-0--------1----|
  Tout est long 


e-0-----0-----0-----0-----1-----1-|
b-1-----1-----1-----1-----1-----0-|
G-0-----2-----0-----2-----2-----0-|
A-2-----2-----2-----2-----3-----0-|
D-3-----0-----3-----0-----3-----2-|
E-0-----0-----0-----0-----1-----3-|


e-0--------------------------0----1-|
b-1--------------------------1----1-|
G-0--------------------------2----2-|
A-2--------------------------2----3-|
D-3--------------------------0----3-|
E-0--------------------------0----1-|
  Non non, ne prends pas ton avion


e-1--------3-------------0----|
b-1--------3-------------1----|
G-2--------0-------------2----|
A-3--------0-------------2----|
D-3--------2-------------0----|
E-1--------3-------------0----|
  Quand tu pars tout est long

e-0--------1----|
b-1--------1----|
G-2--------2----|
A-2--------3----|
D-0--------3----|
E-0--------1----|
  Tout est long 


e-0--------------------------0----1-|
b-1--------------------------1----1-|
G-0--------------------------2----2-|
A-2--------------------------2----3-|
D-3--------------------------0----3-|
E-0--------------------------0----1-|
  Non non, ne prends pas ton avion


e-1--------3-------------0----|
b-1--------3-------------1----|
G-2--------0-------------2----|
A-3--------0-------------2----|
D-3--------2-------------0----|
E-1--------3-------------0----|
  Quand tu pars tout est long

e-1-----0-----|
b-1-----1-----|
G-2-----0-----|
A-3-----2-----|
D-3-----3-----|
E-1-----0-----|
 
Suggest correction
Give kudos to tab author, rate the tab!
1 2 3 4 5
comments
print report bad tab
guest
You may want to rate the tab now too:
select rating
Wanna post a correction for this tab? Suggest correction