Oops, an error
Loading. Please wait.

Tout Nu Sur La Plage Tab

5,047 views 1 this week
no commentswrite comment
1 2 3 4 5
please rate
add to favorites
launch autoscroll
font size
0
reset
how to read this tab
guitar tuner
Autoscroll
slow
fast
+/-
esc
set tempo
stop
Help us to improve Ultimate-Guitar.com Take our survey!
×
Author
Intro :

E||---------------------10-----|-------------------10-----|--------------------7-----|
B||---------8-----8------------|-----8-------8------------|-----8--------8--------8--|
G||------0-----0-----0------0--|----------0-----0------0--|--------9--------9--------|
D||--10------------------------|--9-----------------------|-----------9--------------|
A||----------------------------|--------------------------|--7-----------------------|
E||----------------------------|--------------------------|--------------------------|

-----------5--7--8--7--5--|
--------5-----------------|
-----5--------------------|
--7-----------------------|
--------------------------|
--------------------------|

--------10-----------------12----------|------------------15--------|
------------10-----------------12------|----------13----------------|
--5g10----------10--10g12----------12--|------12------12------------|
---------------------------------------|--14------------------------|
---------------------------------------|----------------------------|
---------------------------------------|----------------------------|

Couplets :

E||----------------------10-----|-------------------10-----|--------------------7-----|
B||----------8-----8------------|-----8-------8------------|-----8--------8--------8--|
G||*------0-----0-----0------0--|----------0-----0------0--|--------9--------9--------|
D||*--10------------------------|--9-----------------------|-----------9--------------|
A||-----------------------------|--------------------------|--7-----------------------|
E||-----------------------------|--------------------------|--------------------------|

-----------5--7--8--7--5--|
--------5-----------------|
-----5--------------------|
--7-----------------------|
--------------------------|
--------------------------|

--------10-----------------12----------|------------------15---------------||
------------10-----------------12------|----------13----------13------13---||
--5g10----------10--10g12----------12--|------12------12----------12------*||
---------------------------------------|--14------------------------------*||
---------------------------------------|-----------------------------------||
---------------------------------------|-----------------------------------||
Suggest correction
Give kudos to tab author, rate the tab!
1 2 3 4 5
comments
print report bad tab
guest
You may want to rate the tab now too:
select rating
Please do not post tabs as comments. Select "correction" instead!