Oops, an error
Loading. Please wait.

Youri Tab

version 2
version 2

Whole song

788 views 1 this week
no commentswrite comment
1 2 3 4 5
please rate
add to favorites
launch autoscroll
font size
0
reset
how to read this tab
guitar tuner
Tab Pro tools
  • play this tab
  • loop segment
  • change instrument
  • show fretboard
  • metronome
×
Best way to learn
"Youri"
Autoscroll
slow
fast
+/-
esc
set tempo
stop
Contributor
XXXXXXXXXXXXXXXXXXXXXXXXXXXXXXXXXXXXXXXXXXXXXXXXXXXXXXXXXXXXXXXXXXXXXXXXXXXXX
-------------------------YOURI-LES TROIS ACCORDS--------------------------X
XXXXXXXXXXXXXXXXXXXXXXXXXXXXXXXXXXXXXXXXXXXXXXXXXXXXXXXXXXXXXXXXXXXXXXXXXXXX

STANDARD TUNING/ GUITARE ACCORDÉE STANDARD
CHANSON/SONG:YOURI
ARTISTE/ARTIST:Les trois accords
ALBUM: Grand champion internationnal de course
PARTITON/TAB PAR/BY: Metalgui
/:slide

NOTE: je n'ai pas le refrain,la chanson n'est donc pas tout à fait complète.

intro:
---------------------------------|
---------------------------------|
------------------------7-7------|
-8-9-9-9-7---9--9-9-7---------7--|
-----------9----------5-----5----|
---------------------------------|

verse/couplet I:(quand le frimas colle aux fenêtres...)
------------------------------------------------|
------------------------------------------------|
------------------------------------------------|
-7--7-7----4----------7-4----------7---7-7--7-4-|
---------5----------7---------------5-----------|
------------------------------------------------|

------------------------------------------------|
------------------------------------------------|
------------------------------------------------|
---7/4----------7-----------------7-7-----------|
-7---------------------5------------------------|
------------------------------------------------|

------------------------------------------------|
------------------------------------------------|
------------------------7-7---------------------|
-8-9-9-9-7---9--9-9-7-----------7--7--7-7----4--|
-----------9-----------5-----5-------------5----|
------------------------------------------------|

------------------------------------------------|
------------------------------------------------|
------------------------7-7---------------------|
-8-9-9-9-7---9--9-9-7-----------5--7-7-7-7-7-7--|
-----------9-----------5-----5------------------|
------------------------------------------------|

pré-refrain/pre-chorus to chorus: (le rebours à zéro...)
accords/chords: Bm-D-G-Bm-D-G-D-G5-D/F#-Bm-G5-D/F#-Bm-G6-A5-A7/E-D

REFRAIN/CHORUS

pre-couplet/pre-verse:
chords/accords: Dsus4-D

----------------------------------------------|
----------------------------------------------|
-----------------------7-7--------------------|
-8-9-9-9-7---9--9-9-7--------7---7--7-7-7-4---|(x2)
-----------9----------5----5------------------|
----------------------------------------------|

couplet/verse II:
--------------------------------------|
--------------------------------------|
--------------------------------------|
----7-4----------7---------7-7--------|
-7-------------------5----------------|
--------------------------------------|

-----------------------------------------------|
-----------------------------------------------|
--------------------------7-7------------------|
-8-9-9-9-7-----9--9-9-7----------7--7--7-7-7-4-|
------------9-----------5------5---------------|
-----------------------------------------------|

pré-refrain/pre-chorus to chorus

REFRAIN/CHORUS

ACCORD FINAL/ LAST CHORD: D
comments
We did not receive enough feedback on this tab! Please rate:
print report bad tab
1 2 3 4 5
I want to post or [tab]
guest
You may want to rate the tab now too:
select rating
Please do not post tabs as comments. Select "correction" instead!