Oops, an error
Loading. Please wait.

Manu Chao Tab

version 1
version 1

Whole song

Interactive

7,743 views 18 this week
3 commentsread comments
1 2 3 4 5
x 4
add to favorites
launch autoscroll
font size
0
reset
how to read this tab
guitar tuner
Autoscroll
slow
fast
+/-
esc
set tempo
stop
Help us to improve Ultimate-Guitar.com Take our survey!
×
Author
Difficulty
novice
-------------------------------------------------------------------------------
                             Manu Chao - Les wampas
-------------------------------------------------------------------------------
Tabbed by:Peter Whittle (of Chemical Fire)
Email:King_pingu@hotmail.com

Tuning: Standard (EADGBe)

e|-----------------------------------------|
B|-----------------------------------------|
G|-----------------------------------------|
D|-14---14---14---14---14---14---14---14---|
A|-14---14---14---14---14---14---14---14---|
E|-12---12---12---12---12---12---12---12---|

e|-----------------------------------------|
B|-----------------------------------------|
G|-14---14---14---14---14---14---14---14---|
D|-14---14---14---12---14---14---14---14---|
A|-12---12---12---12---12---12---12---12---|
E|-----------------------------------------|

e|-----------------------------------------|
B|-----------------------------------------|
G|-16---16---16---16---16---16---16---16---|
D|-16---16---16---16---16---16---16---16---|
A|-14---14---14---14---14---14---14---14---|
E|-----------------------------------------|

and thats pretty much it, repeated over and over again.

it does go to this for a bit

e|-----------------------------------------|
B|-----------------------------------------|
G|----------------14-14--14------16-16--16-|  x4
D|-14-14--14------14-14--14------16-16--16-|
A|-14-14--14------12-12--12------14-14--14-|
E|-12-12--12-------------------------------|

same chords, differnt rhythm and what have you.

basically a very simple song.

i'll tab the solo later...

| /  slide up
| \  slide down
| h  hammer-on
| p  pull-off
| ~  vibrato
| +  harmonic
| x  Mute note
===============================================================================
Suggest correction
comments
print report bad tab
3 comments total.
0 reply
Skillful Kai 10 Jul 31, 2008 12:25 PM

Finally someone posted a Manu Chao tab!

Thanks man, this really helped me out

0 reply
Sepultura-ya! 10 Jul 16, 2009 07:03 PM

Em the chords are wrong he goes lower not higher
e--------------------------------------------------------------------
B--------------------------------------------------------------------
G-9-9-9-9--9-9-9-9--------------------------------------9-9-9-9--9-9-
D-9-9-9-9--9-9-9-9--7-7-7-7--7-7-7-7--9-9-9-9--9-9-9-9--9-9-9-9--9-9-
A-7-7-7-7--7-7-7-7--7-7-7-7--7-7-7-7--9-9-9-9--9-9-9-9--7-7-7-7--7-7-
E-------------------5-5-5-5--5-5-5-5--7-7-7-7--7-7-7-7---------------

e--------------------------------------------------------------------
B------------Thats What You Repeat Over And Over---------------------
G--9-9---------------------------------------------------------------
D--9-9---------------------------------------------------------------
A--7-7---------------------------------------------------------------
E--------------------------------------------------------------------

0 reply
badgerman12 10 Aug 18, 2010 05:01 PM

any idea about the second guitar

guest
You may want to rate the tab now too:
select rating
Wanna post a correction for this tab? Suggest correction