Oops, an error
Loading. Please wait.

107 Bass Tab

version 1
version 1

Whole song

400 views 1 this week
no commentswrite comment
1 2 3 4 5
please rate
add to favorites
launch autoscroll
font size
0
reset
guitar tuner
Autoscroll
slow
fast
+/-
esc
set tempo
stop
Help us to improve Ultimate-Guitar.com Take our survey!
×
Contributor
Song: 107
Album: Losing Streak
Artist: Less Than Jake
Tabbed By: D

Standard Tuning

Intro:
G|--------------|
D|--------------|
A|-3~--77775555-|
E|--------------|

Verse:
G|-----------------------------|
D|--4h5p4----55---4h5p4---54-4-|
A|-5-----5-3-----7-----7----7--| x3
E|-----------------------------|

G|--------------------------|
D|--4h5p4----55---55--------|
A|-5-----5-3-----7--7--5555-|
E|--------------------------|

Chorus 1:
G|----------------------|-------------------------|
D|--532-------532-------|--------333--------------|
A|-----3-55-5----3-55-5-|-----------3-33-333-5555-|
E|-3---------3----------|-3-3-333-----------------|

G|----------------------|-----------------------------|
D|--532-------532-------|--------332h3p2--------------|
A|-----3-55-5----3-55-5-|---------------3-33-333-5555-|
E|-3---------3----------|-3-3-333---------------------|

Verse:
G|-----------------------------|
D|--4h5p4----55---4h5p4---54-4-|
A|-5-----5-3-----7-----7----7--| x3
E|-----------------------------|

G|--------------------------|
D|--4h5p4----55---55--------|
A|-5-----5-3-----7--7--5555-|
E|--------------------------|

Chorus 2:
G|----------------------------------|------------------------------|
D|----------------------------------|---------------------457554---|
A|-3-3-333----------5-5-5557-77-777-|-3-3-333-----------55------75-|
E|---------3-33-333-----------------|---------3-33-333-------------|

G|----------------------------------|---------------------------|
D|----------------------------------|---------------------------|
A|-3-3-333----------5-5-5557-77-777-|-3-3-333----------3--5-----|
E|---------3-33-333-----------------|---------3-33-333-------3--|

Chorus 1:
G|----------------------|-------------------------|
D|--532-------532-------|--------333--------------|
A|-----3-55-5----3-55-5-|-----------3-33-333-5555-|
E|-3---------3----------|-3-3-333-----------------|
					  
G|----------------------|-------------------------------|
D|--532-------532-------|-------------------------------|
A|-----3-55-5----3-55-5-|-----------------3-33-333-5555-|
E|-3---------3----------|-3-3-3331-11-111---------------|

G|-------------------------------|-------------------------------|
D|-------------------------------|-------------------------------|
A|-----------------3-33-333-5555-|-----------------3-33-333-5555-| 
E|-3-3-3331-11-111---------------|-3-3-3331-11-111---------------|

Interlude:
G|-----------------------|-----------------------|
D|-----------------------|------------3-2--------|
A|---2--222----22332h3p2-|---2--222------332h3p2-|
E|-33-3----5--5----------|-33-3----5-5-5---------|

G|-----------------------|-----------------------|
D|-----------------------|-----------------------|
A|---2--222----22332h3p2-|---2----2----223333333-|
E|-33-3----5--5----------|-33-3--3-5--5----------|

Chorus 2:
G|----------------------------------|------------------------------|
D|----------------------------------|---------------------457554---|
A|-3-3-333----------5-5-5557-77-777-|-3-3-333-----------55------75-|
E|---------3-33-333-----------------|---------3-33-333-------------|

G|----------------------------------|---------------------------|
D|----------------------------------|---------------------------|
A|-3-3-333----------5-5-5557-77-777-|-3-3-333----------3--5-----|
E|---------3-33-333-----------------|---------3-33-333-------3--|

Ending:
G|-----------------------|-----------------------|
D|-----------------------|------------3-2--------|
A|---2--222----22332h3p2-|---2--222------332h3p2-|
E|-33-3----5--5----------|-33-3----5-5-5---------|

G|-----------------------|-------------------------|
D|------------3-2--------|-------------------------|
A|---2--222------332h3p2-|---2----2----223333332---|
E|-33-3----5-5-5---------|-33-3--3-5--5---------33-|
comments
We did not receive enough feedback on this tab! Please rate:
print report bad tab
1 2 3 4 5
I want to post or [tab]
guest
You may want to rate the tab now too:
select rating
Please do not post tabs as comments. Select "correction" instead!