Oops, an error
Loading. Please wait.

9Th At Pine Bass Tab

version 2
version 2

Whole song

Interactive

307 views 1 this week
no commentswrite comment
1 2 3 4 5
2 more votes to show rating
add to favorites
launch autoscroll
font size
0
reset
guitar tuner
Autoscroll
slow
fast
+/-
esc
set tempo
stop
Help us to improve Ultimate-Guitar.com Take our survey!
×
Author
Difficulty
LESS THAN JAKE - 9th AT PINE

guitar on It's own

G|-----------------|
D|-----------------|
A|---------6-6-6-6-|
E|-3-3-3-3---------|

G|---------------------------------|
D|---------------------------------|
A|-----------------6-6-5-3-----3-3-| 1,3
E|-3-3-3-5-6-6-6-6---------6-6-----|

G|---------------------------------|
D|---------------------------8-----|
A|-----------------6-6-5-3---------| 2,4
E|-3-3-3-5-6-6-6-6---------6---5-5-|

G|-------------------------------|
D|-------------------5-6-6-6-5---|
A|-----5-------5---6-------------| 1,3
E|-6-6---6-6-6---6-------------6-|

G|-------------------------------|
D|-----------------5---6-6-6-5---|
A|---5-6-8-6-5-6-6---6---------6-| 2
E|-6-----------------------------|

G|------------------------------|
D|------------------------------|
A|---5------5-----------6-6-6-6-| 4
E|-6---6--6---6-3-3-3-3---------|

repeat all of the above, but instead of last bar, play:

G|-------------------------------|
D|-----------------5---6-6-6-5---|
A|---5-6-8-6-5-6-6---6---------6-|
E|-6-----------------------------|

G|---------------------------|
D|---------------------------|
A|---------------------------|
E|-6-------------------------|

G|----------------------------------------------------|
D|----------------------------------------------------|
A|-----------6-6-6----------------------3-3-3-3-6-6-5-| x2
E|-6-6-6-4-4-------4-4--6-6-6-6-3-3-3-3---------------|

G|---------------------------------------------|
D|---------------------------------------------|
A|-----------6-6-6-----------------------6-6-6-| x2
E|-6-6-6-4-4-------4-4-6-6-6-5-5-5-3-3-3-------|

G|---------------------------------|
D|---------------------------------|
A|-------------------------6-6-6-6-|
E|-6-6-6-6-5-5-5-5-3-3-3-3---------|

G|-------------------------------------------------|
D|-------------------------------------------------|
A|-------------------------------------------------|
E|-6-6-6-6-5-5-5-5-3-3-3-3-3-3-3-3-6-6-6-6-6-6-6-6-|

G|---------------------------|
D|---------------------------|
A|---------------------------|
E|-6-------------------------|

END
Suggest correction
Give kudos to tab author, rate the tab!
1 2 3 4 5
comments
print report bad tab
guest
You may want to rate the tab now too:
select rating
Wanna post a correction for this tab? Suggest correction