Oops, an error
Loading. Please wait.

A Still Life Franchise Bass Tab

1,387 views 12 this week
no commentswrite comment
1 2 3 4 5
excellent!
x 1
add to favorites
launch autoscroll
font size
0
reset
guitar tuner
Tab Pro tools
  • play this tab
  • loop segment
  • change instrument
  • show fretboard
  • metronome
Autoscroll
slow
fast
+/-
esc
set tempo
stop
Contributor
-------------------------------------------------------------------------------
             	     A Still Life Franchise - Less Than Jake
-------------------------------------------------------------------------------

Tabbed By : identityxcrysis
e-mail: masteroftheonering@hotmail.com

Tuning:EADG(Standard)
Hard song to tab...easy song to play...
Intro-
G|-------3--------------------------------|
D|-1--4----4-1-----4-------4--------------|
A|--------------2----2------------X2------|
E|----------------------2----2------------|

Verse 1-
G|---------------3-3------------------------------|
D|-11-1--1-1-4--------4-----4---------------------|
A|------4-----------------22---2------1-1-4-------|
E|-------------------------------2-2--------------|

At the end of the verse the bass plays
G|-1-3-4-3--1-----1-----------------|
D|------------4-4--------4----------|
A|-------------------2-2---2--------|
E|---------------------------2222---|

Chorus
G|---------------------------------------------------------------------------|
D|---------------------------------------------------------------------------|
A|-4444444444444444------------------22-2-22-2-22-2-22-2---------------------|
E|------------------4444444444444444---------------------22-2-22-2-22-2-22-2-|

Bridge
First time, distorted ska chords, no bass
G|--------------------|
D|-------4------4-----|
A|---2-2--2-----------|
E|----------2-2---2---|

G|-----------------------------------|
D|-1-1--1--1-4-1----------4------4---|
A|-----4--4-----------2-2--2---------|
E|---------------------------2-2--2--|

Last Chorus
G|--------------------------------------------------------------------------|
D|---------6--4--3----------------------------------------------------------|
A|-44444444-44-44-4------------------22-2-22-2-22-2-22-2--------------------|
E|------------------4444444444444444---------------------22-2-22-2-22-2-22-2|

G|-6666666666666666-4444444444444444----------|
D|--------------------------------------------|
A|-----------------------------------2~-------|
E|----------------------------------------2~--|

There's a couple little awkward parts in there, but nothing too hard.  Let me know if 
something wrong and I'll fix it!

===============================================================================
comments
We did not receive enough feedback on this tab! Please rate:
print report bad tab
1 2 3 4 5
I want to post or [tab]
guest
You may want to rate the tab now too:
select rating
Please do not post tabs as comments. Select "correction" instead!