Oops, an error
Loading. Please wait.

All My Best Friends Are Metalheads Tab

version 3
version 3

Whole song

Interactive

40,208 views 60 this week
5 commentsread comments
1 2 3 4 5
x 15
add to favorites
launch autoscroll
font size
0
reset
how to read this tab
guitar tuner
Autoscroll
slow
fast
+/-
esc
set tempo
stop
Author
Difficulty
intermediate
[Intro]
(Q=186)
E5
(4/4)
(Gtr 1)
e|-------------------|----------------|
B|-------------------|----------------|
G|-9---8-(8)-9-(9)-9-|-(9)-6--6s8--8--|
D|-9---9-(9)-9-(9)-7-|-(7)-7--7s9--9--|
A|-7-----------------|----------------|
E|-0-----------------|----------------|

e|-----------------|--------------------------|
B|--------------10-|-(10)-10-10-10-10s12-12---|
G|-9--9-9-9-9-9--9-|--(9)--9--9--9--9s11-11---|
D|-9--9-9-9-9-9--7-|--(7)--7--7--7--7s=9--9---|
A|-----------------|--------------------------|
E|-----------------|--------------------------|

E5
e|-------------------|----------------|
B|-------------------|----------------|
G|-9---8-(8)-9-(9)-9-|-(9)-6--6s8--8--|
D|-9---9-(9)-9-(9)-7-|-(7)-7--7s9--9--|
A|-7-----------------|----------------|
E|-0-----------------|----------------|

e|--------------------------|----------------|
B|--------------------------|----------------|
G|-13-13-13-11-(11)-13-11-9-|-(9)---9-9--9---|
D|-11-11-11-11-(11)-11-11-7-|-(7)---7-7--9---|
A|--------------------------|----------------|
E|--------------------------|----------------|

[Verse]
E5                  A       B         E                 A       B
(Gtr 2)
e|-7-7-x-7-x-7-x-7-|-x-5-x-5-x-7-x-7-|-x-7-x-7-x-7-x-7-|-x-5-x-5-x-7-x-7--|
B|-9-9-x-9-x-9-x-9-|-x-5-x-5-x-7-x-7-|-x-9-x-9-x-9-x-9-|-x-5-x-5-x-7-x-7--|
G|-9-9-x-9-x-9-x-9-|-x-6-x-6-x-8-x-8-|-x-9-x-9-x-9-x-9-|-x-6-x-6-x-8-x-8--|
D|-----------------|-----------------|-----------------|------------------|
A|-----------------|-----------------|-----------------|------------------|
E|-----------------|-----------------|-----------------|------------------|

  E                   A       B         E               A5     B5
(Gtr 1, 4)
e|-7-7-x-7-x-7-x-7-|-x-5-x-5-x-7-x-7-|-x-7-x-7-x-7-x-7-|----------------|
B|-9-9-x-9-x-9-x-9-|-x-5-x-5-x-7-x-7-|-x-9-x-9-x-9-x-9-|----------------|
G|-9-9-x-9-x-9-x-9-|-x-6-x-6-x-8-x-8-|-x-9-x-9-x-9-x-9-|----------------|
D|-----------------|-----------------|-----------------|----------------|
A|-----------------|-----------------|-----------------|----------------|
E|-----------------|-----------------|-----------------|----------------|

(Gtrs 3, 4)
e|-----------------|-----------------|-----------------|----------------|
B|-----------------|-----------------|-----------------|-5--4-2----2-4--|
G|-----------------|-----------------|---------------4-|--------4-------|
D|-----------------|-----------------|-----------------|----------------|
A|-----------------|-----------------|-----------------|----------------|
E|-----------------|-----------------|-----------------|----------------|

   E                   A       B         E                 A       B
e|-7-7-x-7-x-7-x-7-|-x-5-x-5-x-7-x-7-|-x-7-x-7-x-7-x-7-|-x-5-x-5-x-7-x-7--|
B|-9-9-x-9-x-9-x-9-|-x-5-x-5-x-7-x-7-|-x-9-x-9-x-9-x-9-|-x-5-x-5-x-7-x-7--|
G|-9-9-x-9-x-9-x-9-|-x-6-x-6-x-8-x-8-|-x-9-x-9-x-9-x-9-|-x-6-x-6-x-8-x-8--|
D|-----------------|-----------------|-----------------|------------------|
A|-----------------|-----------------|-----------------|------------------|
E|-----------------|-----------------|-----------------|------------------|

e|-----------------|-----------------|-----------------|------------------|
B|-5---------------|-----------------|-----------------|------------------|
G|-----------------|-----------------|-----------------|------------------|
D|-----------------|-----------------|-----------------|------------------|
A|-----------------|-----------------|-----------------|------------------|
E|-----------------|-----------------|-----------------|------------------|

  E                   A       B         E               A5     B5
(Gtrs 1, 5)
(Gtr 2)
e|-7-7-x-7-x-7-x-7-|-x-5-x-5-x-7-x-7-|-x-7-x-7-x-7-x-7-|-----------------|
B|-9-9-x-9-x-9-x-9-|-x-5-x-5-x-7-x-7-|-x-9-x-9-x-9-x-9-|-----------------|
G|-9-9-x-9-x-9-x-9-|-x-6-x-6-x-8-x-8-|-x-9-x-9-x-9-x-9-|-----------------|
D|-----------------|-----------------|-----------------|-----------------|
A|-----------------|-----------------|-----------------|-----------------|
E|-----------------|-----------------|-----------------|-----------------|

e|-----------------|-----------------|-----------------|-----------------|
B|-----------------|-2---------------|-----------------|-5--4-2----------|
G|---4---4---4---4-|---------4---4-4-|---------------4-|--------4--4-----|
D|-----------------|-----------------|-----------------|-------------6s==|
A|-----------------|-----------------|-----------------|-----------------|
E|-----------------|-----------------|-----------------|-----------------|

[Pre-Chorus]
   A                   E               A                   E       B
e|-5-5-x-5-x-5-x-5-|-x-7-x-7-x-7-x-7-|-5-5-x-5-x-5-x-5-|-x-7-x-7-x-7-x-7---|
B|-5-5-x-5-x-5-x-5-|-x-9-x-9-x-9-x-9-|-5-5-x-5-x-5-x-5-|-x-9-x-9-x-7-x-7---|
G|-6-6-x-6-x-6-x-6-|-x-9-x-9-x-9-x-9-|-6-6-x-6-x-6-x-6-|-x-9-x-9-x-8-x-8---|
D|-----------------|-----------------|-----------------|-------------------|
A|-----------------|-----------------|-----------------|-------------------|
E|-----------------|-----------------|-----------------|-------------------|

e|-----------------|-----------------|-----------------|-------------------|
B|-----------------|-----------------|-------------2---|-------------------|
G|-----------------|-----------------|-----6---4-------|-4-----------------|
D|-7-------------7s|=6-------------6s|=7---------------|---------------6s==|
A|-----------------|-----------------|-----------------|-------------------|
E|-----------------|-----------------|-----------------|-------------------|

   A                   E               B5
(Gtrs 1, 5)
e|-5-5-x-5-x-5-x-5-|-x-7-x-7-x-7-x-7-|-----------|--------------|
B|-5-5-x-5-x-5-x-5-|-x-9-x-9-x-9-x-9-|-----------|--------------|
G|-6-6-x-6-x-6-x-6-|-x-9-x-9-x-9-x-9-|-4----4----|-4--4--4--4---|
D|-----------------|-----------------|-4----4----|-4--4--4--4---|
A|-----------------|-----------------|-2----2----|-2--2--2--2---|
E|-----------------|-----------------|-----------|--------------|

e|-----------------|-----------------|-----------|--------------|
B|-----------------|-----------------|-7----7----|-7--7--7--7---|
G|-----------------|-----------------|-----------|--------------|
D|-7-------------7s|=6---------------|-----------|--------------|
A|-----------------|-----------------|-----------|--------------|
E|-----------------|-----------------|-----------|--------------|

[Chorus]
   E5 G#5A5          G#F#5B5      E5 G#5A5          G#F#5B5
e|-------------|----------------|-------------|-----------------|
B|-------------|----------------|-------------|-----------------|
G|-------------|----------4-----|-------------|----------4------|
D|-2-----------|----------4-----|-2-----------|----------4------|
A|-2--6--7---7-|-(7)-6-4--2-----|-2--6--7---7-|-(7)-6-4--2------|
E|-0--4--5---5-|-(5)-4-2--------|-0--4--5---5-|-(5)-4-2---------|

e|----7--------|-(7)------5--4--|-------------|-----------------|
B|-------------|----------------|-------------|-----------------|
G|-------------|----------------|-------------|-----------------|
D|-------------|----------------|----9--------|-(9)------7--6---|
A|-------------|----------------|-------------|-----------------|
E|-------------|----------------|-------------|-----------------|

   E5 G#5A5          G#F#5B5      A5
e|-------------|----------------|----------|--------|
B|-------------|----------------|----------|--------|
G|-------------|----------4--4--|-2--------|-(2)----|
D|-2-----------|----------4--4--|-2--------|-(2)----|
A|-2--6--7---7-|-(7)-6-4--2--2--|-0--------|-(0)----|
E|-0--4--5---5-|-(5)-4-2--------|----------|--------|

e|----7--------|-(7)------5--4--|----------|--------|
B|-------------|----------------|-5--------|-(5)----|
G|-------------|----------------|----------|--------|
D|-------------|----------------|----------|--------|
A|-------------|----------------|----------|--------|
E|-------------|----------------|----------|--------|

e|------------|--------|
B|------------|--------|
G|--2---------|-(2)----|
D|--2---------|-(2)----|
A|--0---------|-(0)----|
E|------------|--------|

e|------------|--------|
B|-(5)--------|-(5)----|
G|------------|--------|
D|------------|--------|
A|------------|--------|
E|------------|--------|

[Verse]
   E                     A       B         E                   A       B
(Gtr 2)
e|-7-7-x-7-x-7-x-7-|--x--5-x-5-x-7-x-7-|-x-7-x-7--x--7-x-7-|-x-5-x-5-x-7-x-7--|
B|-9-9-x-9-x-9-x-9-|--x--5-x-5-x-7-x-7-|-x-9-x-9--x--9-x-9-|-x-5-x-5-x-7-x-7--|
G|-9-9-x-9-x-9-x-9-|--x--6-x-6-x-8-x-8-|-x-9-x-9--x--9-x-9-|-x-6-x-6-x-8-x-8--|
D|-----------------|-------------------|-------------------|------------------|
A|-----------------|-------------------|-------------------|------------------|
E|-----------------|-------------------|-------------------|------------------|

e|-----------------|-------------------|-------------------|------------------|
B|-----5-----------|-(5)-----5-4-5-7---|-5-----------------|-2-----------2----|
G|-----------------|-------------------|---4-----(4)-----4-|-----4-2-1-----4--|
D|-----------------|-------------------|-------------------|------------------|
A|-----------------|-------------------|-------------------|------------------|
E|-----------------|-------------------|-------------------|------------------|

  E                       A       B         E                 A5     B5
(Gtrs 1, 5)
(Gtr 2)
e|--7--7-x-7-x-7-x-7-|--x--5-x-5-x-7-x-7-|-x-7-x-7--x--7-x-7-|----------------|
B|--9--9-x-9-x-9-x-9-|--x--5-x-5-x-7-x-7-|-x-9-x-9--x--9-x-9-|----------------|
G|--9--9-x-9-x-9-x-9-|--x--6-x-6-x-8-x-8-|-x-9-x-9--x--9-x-9-|----------------|
D|-------------------|-------------------|-------------------|----------------|
A|-------------------|-------------------|-------------------|----------------|
E|-------------------|-------------------|-------------------|----------------|

e|-------------------|-------------------|-------------------|----------------|
B|-------5-----------|-(5)-----5-4-5-7---|-5-----------------|-5--4-2----2-4--|
G|-(4)---------------|-------------------|---4-----(4)-----4-|--------4-------|
D|-------------------|-------------------|-------------------|----------------|
A|-------------------|-------------------|-------------------|----------------|
E|-------------------|-------------------|-------------------|----------------|

   E5                  A       B         E                     A       B
e|-7-7-x-7-x-7-x-7-|-x-5-x-5-x-7-x-7-|-x-7-x-7--x--7-x-7-|--x--5-x-5-x-7-x-7--|
B|-9-9-x-9-x-9-x-9-|-x-5-x-5-x-7-x-7-|-x-9-x-9--x--9-x-9-|--x--5-x-5-x-7-x-7--|
G|-9-9-x-9-x-9-x-9-|-x-6-x-6-x-8-x-8-|-x-9-x-9--x--9-x-9-|--x--6-x-6-x-8-x-8--|
D|-----------------|-----------------|-------------------|--------------------|
A|-----------------|-----------------|-------------------|--------------------|
E|-----------------|-----------------|-------------------|--------------------|

(Gtr 1)
e|-----------------|-----------------|-------------------|--------------------|
B|-----------------|-----------------|-------------------|--------------------|
G|-9---------------|-----------------|---1-2-4-(4)-2-1-2-|-(2)-1--------------|
D|-9---------------|-----------------|-2-----------------|-------4-2-4-2-1----|
A|-7---------------|-----------------|-------------------|-----------------2--|
E|-0---------------|-----------------|-------------------|--------------------|

(Gtrs 3, 4)
e|-----------------|-----------------|-------------------|--------------------|
B|-5---------------|-----------------|-------------------|--------------------|
G|-----------------|-----------------|-------------------|--------------------|
D|-----------------|-----------------|-------------------|--------------------|
A|-----------------|-----------------|-------------------|--------------------|
E|-----------------|-----------------|-------------------|--------------------|

   E                     A       B         E               A5     B5
e|-7-7-x-7--x--7-x-7-|-x-5-x-5-x-7-x-7-|-x-7-x-7-x-7-x-7-|-----------------|
B|-9-9-x-9--x--9-x-9-|-x-5-x-5-x-7-x-7-|-x-9-x-9-x-9-x-9-|-----------------|
G|-9-9-x-9--x--9-x-9-|-x-6-x-6-x-8-x-8-|-x-9-x-9-x-9-x-9-|-----------------|
D|-------------------|-----------------|-----------------|-----------------|
A|-------------------|-----------------|-----------------|-----------------|
E|-------------------|-----------------|-----------------|-----------------|

(Gtrs 1, 5)
e|-------------------|-----------------|-----------------|-----------------|
B|-------------------|-----------------|-----------------|-----------------|
G|-----1---------1---|-----------------|-----------------|-2------4--------|
D|-2-2---2-(2)-2---2-|-------------1---|-----------------|-2------4--------|
A|-------------------|-0-0-4-0-2-2---2-|-----------------|-0------2--------|
E|-------------------|-----------------|-----------------|-----------------|

e|-------------------|-----------------|-----------------|-----------------|
B|-------------------|-2---------------|-----------------|-5--4-2----------|
G|---4---4-----4---4-|---------4---4-4-|---------------4-|--------4--4-----|
D|-------------------|-----------------|-----------------|-------------6s==|
A|-------------------|-----------------|-----------------|-----------------|
E|-------------------|-----------------|-----------------|-----------------|

[Pre-Chorus]
   A                   E               A                   E       B
e|-5-5-x-5-x-5-x-5-|-x-7-x-7-x-7-x-7-|-5-5-x-5-x-5-x-5-|-x-7-x-7-x-7-x-7---|
B|-5-5-x-5-x-5-x-5-|-x-9-x-9-x-9-x-9-|-5-5-x-5-x-5-x-5-|-x-9-x-9-x-7-x-7---|
G|-6-6-x-6-x-6-x-6-|-x-9-x-9-x-9-x-9-|-6-6-x-6-x-6-x-6-|-x-9-x-9-x-8-x-8---|
D|-----------------|-----------------|-----------------|-------------------|
A|-----------------|-----------------|-----------------|-------------------|
E|-----------------|-----------------|-----------------|-------------------|

e|-----------------|-----------------|-----------------|-------------------|
B|-----------------|-----------------|-------------2---|-------------------|
G|-----------------|-----------------|-----6---4-------|-4-----------------|
D|-7-------------7s|=6-------------6s|=7---------------|---------------6s==|
A|-----------------|-----------------|-----------------|-------------------|
E|-----------------|-----------------|-----------------|-------------------|

   A                   E               B5
(Gtrs 1, 5)
e|-5-5-x-5-x-5-x-5-|-x-7-x-7-x-7-x-7-|-----------|--------------|
B|-5-5-x-5-x-5-x-5-|-x-9-x-9-x-9-x-9-|-----------|--------------|
G|-6-6-x-6-x-6-x-6-|-x-9-x-9-x-9-x-9-|-4----4----|-4--4--4--4---|
D|-----------------|-----------------|-4----4----|-4--4--4--4---|
A|-----------------|-----------------|-2----2----|-2--2--2--2---|
E|-----------------|-----------------|-----------|--------------|

e|-----------------|-----------------|-----------|--------------|
B|-----------------|-----------------|-7----7----|-7--7--7--7---|
G|-----------------|-----------------|-----------|--------------|
D|-7-------------7s|=6---------------|-----------|--------------|
A|-----------------|-----------------|-----------|--------------|
E|-----------------|-----------------|-----------|--------------|

[Chorus]
     E5 G#5A5          G#F#5B5      E5 G#5A5          G#F#5B5
e|--------------|----------------|-------------|----------------|
B|o-------------|----------------|-------------|----------------|
G|--------------|----------4-----|-------------|----------4-----|
D|--2-----------|----------4-----|-2-----------|----------4-----|
A|o-2--6--7---7-|-(7)-6-4--2-----|-2--6--7---7-|-(7)-6-4--2-----|
E|--0--4--5---5-|-(5)-4-2--------|-0--4--5---5-|-(5)-4-2--------|

e|-----7--------|-(7)------5--4--|-------------|----------------|
B|o-------------|----------------|-------------|----------------|
G|--------------|----------------|-------------|----------------|
D|--------------|----------------|----9--------|-(9)------7--6--|
A|o-------------|----------------|-------------|----------------|
E|--------------|----------------|-------------|----------------|
                              
   E5 G#5A5          G#F#5B5      A5
(Gtrs 1, 5)
e|-------------|----------------|----------|---------|
B|-------------|----------------|----------|--------o|
G|-------------|----------4--4--|-2--------|-(2)-----|
D|-2-----------|----------4--4--|-2--------|-(2)-----|
A|-2--6--7---7-|-(7)-6-4--2--2--|-0--------|-(0)----o|
E|-0--4--5---5-|-(5)-4-2--------|----------|---------|

(Gtr 3)
e|----7--------|-(7)------5--4--|----------|---------|
B|-------------|----------------|-5--------|-(5)----o|
G|-------------|----------------|----------|---------|
D|-------------|----------------|----------|---------|
A|-------------|----------------|----------|--------o|
E|-------------|----------------|----------|---------|

e|----------|------------|------------|--------|
B|----------|------------|------------|--------|
G|-2--------|-(2)--------|--2---------|-(2)----|
D|-2--------|-(2)--------|--2---------|-(2)----|
A|-0--------|-(0)--------|--0---------|-(0)----|
E|----------|------------|------------|--------|

e|----------|------------|------------|--------|
B|-5--------|-(5)--------|-(5)--------|-(5)----|
G|----------|------------|------------|--------|
D|----------|------------|------------|--------|
A|----------|------------|------------|--------|
E|----------|------------|------------|--------|

[Interlude]
     E
e|--------------------|----------------|
B|o-------------------|----------------|
G|--9---8-(8)-9-(9)-9-|-(9)-6--6s8--8--|
D|--9---9-(9)-9-(9)-7-|-(7)-7--7s9--9--|
A|o-7-----------------|----------------|
E|--0-----------------|----------------|

e|--------------------------|----------------|
B|--------------------------|---------------o|
G|-13-13-13-11-(11)-13-11-9-|-(9)---9-9--9---|
D|-11-11-11-11-(11)-11-11-7-|-(7)---7-7--9---|
A|--------------------------|---------------o|
E|--------------------------|----------------|

     E5              B/Eb
e|--------------------|--------------------|
B|o-------------------|--------------------|
G|--------------------|--------------------|
D|--9---9----9--9-9-9-|-(9)-9-9----9--9-9--|
A|o-7---7----7--7-7-6-|-(6)-6-6----6--6-6--|
E|--------------------|--------------------|

(Gtrs 3, 4)
e|--------------------|--------------------|
B|o-5-5-5-4-(4)-5---7-|-(7)---5-4-(4)-5----|
G|--------------------|--------------------|
D|--------------------|--------------------|
A|o-------------------|--------------------|
E|--------------------|--------------------|

   C#5             A5
e|-------------------|-------------------|
B|-------------------|------------------o|
G|-------------------|-------------------|
D|-6---6----6--6-6---|-------------------|
A|-4---4----4--4-4-7-|-(7)-7-7--7-7-7-7-o|
E|-----------------5-|-(5)-5-5--5-5-5-5--|

e|-------------------|-------------------|
B|-------------2-----|------------------o|
G|-6-6-6-4-(4)-----2-|-(2)---------------|
D|-------------------|-------------------|
A|-------------------|------------------o|
E|-------------------|-------------------|

[Pre-Chorus]
(Gtrs 1, 5)
  PM------------------------------------------------------------------|
e|-----------------|-----------------|-----------------|------------------|
B|-----------------|-----------------|-----------------|------------------|
G|-----------------|-----------------|-----------------|------------------|
D|-----------------|-2-2-2-2-2-2-2-2-|-----------------|-2-2-2-2----------|
A|-0-0-0-0-0-0-0-0-|-----------------|-0-0-0-0-0-0-0-0-|---------2-2-2-2--|
E|-----------------|-----------------|-----------------|------------------|

                                      B5
  PM------------------------------|
e|-----------------|-----------------|-----------|--------------|
B|-----------------|-----------------|-----------|--------------|
G|-----------------|-----------------|-4----4----|-4--4--4--4---|
D|-----------------|-2-2-2-2-2-2-2-2-|-4----4----|-4--4--4--4---|
A|-0-0-0-0-0-0-0-0-|-----------------|-2----2----|-2--2--2--2---|
E|-----------------|-----------------|-----------|--------------|

[Chorus]
   E5 G#5A5          G#F#5B5      E5 G#5A5          G#F#5B5
(Gtrs 1, 5)
e|-------------|----------------|-------------|-----------------|
B|-------------|----------------|-------------|-----------------|
G|-------------|----------4-----|-------------|----------4------|
D|-2-----------|----------4-----|-2-----------|----------4------|
A|-2--6--7---7-|-(7)-6-4--2-----|-2--6--7---7-|-(7)-6-4--2------|
E|-0--4--5---5-|-(5)-4-2--------|-0--4--5---5-|-(5)-4-2---------|

(Gtrs 3, 4)
e|----7--------|-(7)------5--4--|-------------|-----------------|
B|-------------|----------------|-------------|-----------------|
G|-------------|----------------|-------------|-----------------|
D|-------------|----------------|----9--------|-(9)------7--6---|
A|-------------|----------------|-------------|-----------------|
E|-------------|----------------|-------------|-----------------|

   E5 G#5A5          G#F#5B5      A5
e|-------------|----------------|----------------|-------------------|
B|-------------|----------------|----------------|-------------------|
G|-------------|----------4--4--|-2--2-2-2-2-2-2-|--2---2-2-2-2-2-2--|
D|-2-----------|----------4--4--|-2--2-2-2-2-2-2-|--2---2-2-2-2-2-2--|
A|-2--6--7---7-|-(7)-6-4--2--2--|-0--0-0-0-0-0-0-|--0---0-0-0-0-0-0--|
E|-0--4--5---5-|-(5)-4-2--------|----------------|-------------------|

e|----7--------|-(7)------5--4--|----------------|-------------------|
B|-------------|----------------|-5--------------|-(5)---------------|
G|-------------|----------------|----------------|-------------------|
D|-------------|----------------|----------------|-------------------|
A|-------------|----------------|----------------|-------------------|
E|-------------|----------------|----------------|-------------------|

[Chorus]
(w key change)
   F#5A#5B5          A#G#5C#5     F#5A#5 B5           A#G#5C#5
e|-------------|----------------|--------------|------------------|
B|-------------|----------------|--------------|------------------|
G|-------------|----------6-----|--------------|-----------6------|
D|-4--3--4---4-|-(4)-3----6-----|-4---3--4---4-|--(4)-3----6------|
A|-4--1--2---2-|-(2)-1-6--4-----|-4---1--2---2-|--(2)-1-6--4------|
E|-2-----------|-------4--------|-2------------|--------4---------|

e|----9--------|-(9)------7--6--|--------------|------------------|
B|-------------|----------------|--------------|------------------|
G|-------------|----------------|--------------|------------------|
D|-------------|----------------|----11--------|-(11)------9--8---|
A|-------------|----------------|--------------|------------------|
E|-------------|----------------|--------------|------------------|

   F#5A#5B5          A#G#5C#5     F#5   B5               C#5
e|-------------|----------------|-------------|---------------|
B|-------------|----------------|-------------|---------------|
G|-------------|----------6-----|-6--6--------|---------------|
D|-4--3--4---4-|-(4)-3----6-----|-4--4--4---4-|-(4)-4--4-6----|
A|-4--1--2---2-|-(2)-1-6--4-----|-------2---2-|-(2)-2--2-4----|
E|-2-----------|-------4--------|-------------|---------------|

e|----9--------|-(9)------7--6--|-------------|---------------|
B|-------------|----------------|-7-----------|-(7)-----------|
G|-------------|----------------|-------------|---------------|
D|-------------|----------------|-------------|---------------|
A|-------------|----------------|-------------|---------------|
E|-------------|----------------|-------------|---------------|

   F#5    B5                C#5      F#5    B5                C#5
e|---------------|-----------------|---------------|------------------|
B|---------------|-----------------|---------------|------------------|
G|-6--6----------|-----------------|-6--6----------|------------------|
D|-4--4---4----4-|-(4)-4--4-6------|-4--4---4----4-|-(4)-4--4-6-------|
A|--------2----2-|-(2)-2--2-4------|--------2----2-|-(2)-2--2-4-------|
E|---------------|-----------------|---------------|------------------|

e|---------------|-----------------|---------------|------------------|
B|-2------2------|-----------------|-2------2------|------------------|
G|----4------4---|-----------------|----4------4---|------------------|
D|------4------4-|-(4)-4--4-6-8-6--|------4------4-|-(4)-4--4-6-8-6---|
A|---------------|-----------------|---------------|------------------|
E|---------------|-----------------|---------------|------------------|

   F#5    B5                C#5      B5
e|---------------|-----------------|----------|--------|
B|---------------|-----------------|----------|--------|
G|-6--6----------|-----------------|-4--------|-(4)----|
D|-4--4---4----4-|-(4)-4--4-6---6--|-4--------|-(4)----|
A|--------2----2-|-(2)-2--2-4---4--|-2--------|-(2)----|
E|---------------|-----------------|----------|--------|

e|---------------|-----------------|----------|--------|
B|-2------2------|-----------------|----------|--------|
G|----4------4---|-----------------|-6--------|--4-----|
D|------4------4-|-(4)-4--4-6-8-6--|----------|--------|
A|---------------|-----------------|----------|--------|
E|---------------|-----------------|----------|--------|

e|----------|--------|
B|----------|--------|
G|-4--------|-(4)----|
D|-4--------|-(4)----|
A|-2--------|-(2)----|
E|----------|--------|

e|----------|--------|
B|-2--------|--0-----|
G|-3--------|--1-----|
D|----------|--------|
A|----------|--------|
E|----------|--------|

[Outro]
e|-------------------------|-------------------|---------------------------|
B|-------------------------|-------------------|---------------------------|
G|-11---10-(10)-11-(11)-11-|-(11)-8--8s10--10--|-15-15-15-13-(13)-15-13-11-|
D|-11---11-(11)-11-(11)--9-|--(9)-9--9s11--11--|-13-13-13-13-(13)-13-13--9-|
A|-------------------------|-------------------|---------------------------|
E|-------------------------|-------------------|---------------------------|

e|-------------|-------------|---------*|
B|-------------|-------------|---------*|
G|-(11)--------|-(11)--------|-(11)----*|
D|--(9)--------|--(9)--------|--(9)----*|
A|-------------|-------------|---------*|
E|-------------|-------------|---------*|


************************************

| (n)  Ghost note
| x    Dead note
| *    Natural harmonic

************************************
Suggest correction
comments
print report bad tab
5 comments total. Showing first comments.
0 reply
PhantomWuss95 31 Aug 31, 2006 04:18 PM

nice!

0 reply
garrett5 20 Nov 10, 2006 05:47 PM

Great tab, 5 Stars.

+1 reply
asuicidalclown 10 Jan 20, 2007 03:49 PM

great tab indeed, too bad i had to kill a tree to print the thing

lol

guest
You may want to rate the tab now too:
select rating
Wanna post a correction for this tab? Suggest correction