Oops, an error
Loading. Please wait.

Anchor Bass Tab

163 views 1 this week
no commentswrite comment
1 2 3 4 5
please rate
add to favorites
launch autoscroll
font size
0
reset
guitar tuner
Autoscroll
slow
fast
+/-
esc
set tempo
stop
Help us to improve Ultimate-Guitar.com Take our survey!
×
Author
Difficulty
intermediate
LESS THAN JAKE - ANCHOR

G|------------------|
D|------------------|
A|-2 (let ring)-----|
E|--------------/-\-|

G|---------------2-1---4-2-1-----|
D|-----1-----1-4-----4-------4-2-|
A|-2-2---2-2---------------------|
E|-------------------------------|

G|-------------------------------------|
D|-----------------9-99-8-88-6-66------|
A|-4-4-4-4-9-9-9-9----------------9-99-|
E|-------------------------------------|

G|--------------------|
D|--------------------|
A|-7-77-6-4---1-2-4-2-|
E|----------2---------|

G|---------------2-1---4-2-1-----|
D|-----1-----1-4-----4-------4-2-|
A|-2-2---2-2---------------------|
E|-------------------------------|

G|-------------------------------|
D|-----1-----1-4-2-2-2-2-2-2-2-2-|
A|-2-2---2-2---------------------|
E|-------------------------------|

G|-------------------------------------|
D|-----------------9-99-8-88-6-66------|
A|-4-4-4-4-9-9-9-9----------------9-99-|
E|-------------------------------------|

G|--------------------|
D|--------------------|
A|-7-77-6-4---1-2-4-2-|
E|----------2---------|

G|-------|
D|-------|
A|----2--|
E|-2-----|

END
Suggest correction
Give kudos to tab author, rate the tab!
1 2 3 4 5
comments
print report bad tab
guest
You may want to rate the tab now too:
select rating
Please do not post tabs as comments. Select "correction" instead!