Oops, an error
Loading. Please wait.

Ask The Magic 8 Ball Bass Tab

version 1
version 1

Whole song

435 views 1 this week
no commentswrite comment
1 2 3 4 5
please rate
add to favorites
launch autoscroll
font size
0
reset
guitar tuner
Tab Pro tools
  • play this tab
  • loop segment
  • change instrument
  • show fretboard
  • metronome
Autoscroll
slow
fast
+/-
esc
set tempo
stop
Contributor
Song: Ask The Magic 8-Ball
Album: Losing Streak
Artist: Less Than Jake
Tabbed by: D

Standard Tuning

Intro:
G|------------------|------------------------|----------------|
D|------------------|----4h5p4------5h7p54---|----4h5p4-------|
A|-------5~------5~-|--54-----545-54------75-|--54-----545-45-|
E|-5--3------0~-----|-5----------5-----------|-5----------5---|

Verse:
G|------------------------------|------------------------|
D|-------4h5p4---------5h7p54---|-------4h5p4------------|
A|--4h5p4-----545-4h5p4------75-|--4h5p4-----545-457-252-| x2
E|-5-------------5--------------|-5-------------5---3----|

G|------------------------------|------------------------|
D|--------4------------5h7p54---|-------4h5p4------------|
A|---4h54---4h54--4h5p4------75-|--4h5p4-----545-457-252-|
E|-5-------------5--------------|-5-------------5---3----|

G|------------------------------|------------------------|
D|-------4h5p4---------5h7p54---|-------4h5p4------------|
A|--4h5p4-----545-4h5p4------75-|--4h5p4-----545-457-252-|
E|-5-------------5--------------|-5-------------5---3----|


Verse 2:
G|------------------------|---------------------|
D|----4h5p4------5h7p54---|----4h5p4------------|
A|--54-----54--54------75-|--54-----545-457-252-| x2
E|-5----------5-----------|-5----------5---3----|

G|----------------------------|------------------------|
D|-------4-----------5h7p54---|-------4----------------|
A|--4h54--4h54--4h5p4------75-|--4h54--4h54--4h5p4-252-|
E|-5-----------5--------------|-5-----------5-----3----|

G|----------------------------|---------------------|
D|-------4-----------5h7p54---|----4h5p4------------|
A|--4h54--4h54--4h5p4------75-|--54-----54--457-252-|
E|-5-----------5--------------|-5---------75---3----|

Interlude:
G|---------------------------------------|------------|
D|---------------------------------------|------------|
A|-------------------55555554h5-77775555-|------------|
E|-55555555-33333333---------------------|-5~~~-55~~~-|

G|----------------------------|-----------------------------|
D|-7-7------------------------|-7-7-------------------------|
A|----77--4477-55----x44h5p4--|----77--4477-77h9p75-54h5p4--|
E|----------------55--------5-|---------------------------5-|

G|----------------------------|-6-66-666-7-7777--------------|
D|-7-7------------------------|-----------------99-9-99h11-9-|
A|----77--4477-55----4-4h5p4--|------------------------------|
E|----------------55--------5-|------------------------------|

G|----------------|
D|----------------|
A|------5------5--|
E|-5--3---5--3----|

G|-----------------------------------|
D|-----------------------------------|
A|------------------------------5555-| x2
E|-555555555555555555555555-3333-----|

G|------------------------------|------------------------|
D|-------4h5p4---------5h7p54---|-------4h5p4------------|
A|--4h5p4-----545-4h5p4------75-|--4h5p4-----545-457-252-|
E|-5-------------5--------------|-5-------------5---3----|

G|-6-6666666-7-7777--44444-|-6-6666666-7-7777--44444---|
D|-7-7777777-7-7777--55555-|-7-7777777-7-7777--55555---|
A|-------------------------|---------------------------|
E|-------------------------|-------------------------5-|
comments
We did not receive enough feedback on this tab! Please rate:
print report bad tab
1 2 3 4 5
I want to post or [tab]
guest
You may want to rate the tab now too:
select rating
Please do not post tabs as comments. Select "correction" instead!