Oops, an error
Loading. Please wait.

Bigger Picture Bass Tab

278 views 1 this week
no commentswrite comment
1 2 3 4 5
accurate
x 3
add to favorites
launch autoscroll
font size
0
reset
guitar tuner
Tab Pro tools
  • play this tab
  • loop segment
  • change instrument
  • show fretboard
  • metronome
×
Best way to learn
"Bigger Picture"
Autoscroll
slow
fast
+/-
esc
set tempo
stop
SONG: Bigger picture
BAND: Less Than Jake
ALBUM: Borders and boundaries
TABBED BY: J-F Marchand

Bridge 4x

G ------------------------------------------------
D ------------------------------------------------
A -6>-8-------------------------------------------
E ------88-66-4>-333-666--------------------------

Chorus 2x              Variation (I think it happens 2
                       times in the song)
G -------------------|----------------------------
D -------------------|-------3--------------------
A -6>-------33-4>----|-6>------3-4>---------------
E ----6>-66-------4>-|----6>--------4>------------

Interlude
                       2x                       1x
G -----------------------|------------------------
D -----------------------|------------------------
A -6----------33---------|66-55-33-11-------------
E ---44-66-33----11-44-66|------------11-33-44-66-

G ---------------------00-------------11-00-------
D ---------------00-11----33-11-00----------33-11-
A -6----------33-------------------33-------------
E ---44-66-33-------------------------------------

G ------------------------------------------------
D -00------------1--------------------------------
A ----33-1----------------------------------------
E ---------4-3-1----------------------------------

"I'm breaking down....."

Chorus

This is it. It's good at 100%, only I missed some tricks.
You know how Roger is powerful.
comments
We did not receive enough feedback on this tab! Please rate:
print report bad tab
1 2 3 4 5
I want to post or [tab]
guest
You may want to rate the tab now too:
select rating
Please do not post tabs as comments. Select "correction" instead!