Oops, an error
Loading. Please wait.

City Of Gainesville Tab

version 1
version 1

Whole song

2,085 views 3 this week
2 commentsread comments
1 2 3 4 5
2 more votes to show rating
add to favorites
launch autoscroll
font size
0
reset
how to read this tab
guitar tuner
Autoscroll
slow
fast
+/-
esc
set tempo
stop
Help us to improve Ultimate-Guitar.com Take our survey!
×
-------------------------------------------------------------------------------
                             City of Gainesville - Less Than Jake
-------------------------------------------------------------------------------
Tabbed by: identityxcrysis
Email: xrunawayboyx@hotmail.com

Tuning: Standard (EADGBe)

Light distortion throughout the entire song

Main riff
The rhythm isn't perfect, but you should be able to figure it out
e|-x-6-x-x-6-6-x-x-x-6-x-x-6-6-x-x-x-6-x-x-6-6-x-x-x-6-x-x-6-6-x-x-|
B|-x-6-x-x-6-6-x-x-x-6-x-x-6-6-x-x-x-6-x-x-6-6-x-x-x-6-x-x-6-6-x-x-|
G|-x-7-x-x-7-7-x-x-x-7-x-x-7-7-x-x-x-7-x-x-7-7-x-x-x-7-x-x-7-7-x-x-|
D|-----------------------------------------------------------------|
A|-----------------------------------------------------------------|
E|-----------------------------------------------------------------|

e|-x-4-x-x-4-4-x-x-x-4-x-x-4-4-x-x-x-3-x-x-3-3-x-x-x-11-x-x-11-11-x-x----|
B|-x-4-x-x-4-4-x-x-x-4-x-x-4-4-x-x-x-4-x-x-4-4-x-x-x-11-x-x-11-11-x-x----|
G|-x-5-x-x-5-5-x-x-x-5-x-x-5-5-x-x-x-5-x-x-5-5-x-x-x-12-x-x-12-12-x-x----|
D|-----------------------------------------------------------------------|
A|-----------------------------------------------------------------------|
E|-----------------------------------------------------------------------|

second riff
e|-x-6-x-x-6-6-x-x-x-4-x-x-4-4-x-x-x-3-x-x-3-3-x-x-x-11-x-x-11-11-x-x-|
B|-x-6-x-x-6-6-x-x-x-4-x-x-4-4-x-x-x-4-x-x-4-4-x-x-x-11-x-x-11-11-x-x-|
G|-x-7-x-x-7-7-x-x-x-5-x-x-5-5-x-x-x-5-x-x-5-5-x-x-x-12-x-x-12-12-x-x-|
D|--------------------------------------------------------------------|
A|--------------------------------------------------------------------|
E|--------------------------------------------------------------------|

"I may be going broke..."
e|-x-6-x-x-6-6-x-x-x-3~------------|
B|-x-6-x-x-6-6-x-x-x-4~------------|
G|-x-7-x-x-7-x-x-x-x-5~------------|
D|---------------------------------|
A|---------------------------------|
E|---------------------------------|

END
===============================================================================
Suggest correction
Give kudos to tab author, rate the tab!
1 2 3 4 5
comments
print report bad tab
2 comments total.
+1 reply
skaman27 102 Jun 28, 2008 01:05 PM

pretty good, i think there's a little more to it though

0 reply
Stevie B 390 Oct 17, 2012 04:17 PM


e|-10-13--8-11----11-
b|-11-11--9-9---8-8--
g|-10-10--8-8---8-8--
d|--------------8----

I like to use these chords for the first bit.
I think they sound better than most tabs I've seen on here.

guest
You may want to rate the tab now too:
select rating
Wanna post a correction for this tab? Suggest correction