Oops, an error
Loading. Please wait.

City Of Gainesville Tab

version 4
version 4

Whole song

548 views 1 this week
no commentswrite comment
1 2 3 4 5
2 more votes to show rating
add to favorites
launch autoscroll
font size
0
reset
how to read this tab
guitar tuner
Autoscroll
slow
fast
+/-
esc
set tempo
stop
Help us to improve Ultimate-Guitar.com Take our survey!
×
Difficulty
intermediate
CITY OF GAINESVILLE
By: Less Than Jake
Tabbed by: Kenny Fabritius

Key:     /=slide     )))=let rind     x=mute     |=first time played     ||=second time played



PART 1: instrumental intro and 1st and 3rd set of lyrics.

E-----------------------------------------------------------------------|
a-----------------------------------------------------------------------|
d---x-12-x-12-12-----x-9--x-9--9------x-12-x-12-12-----x-9--x-9--9------|
g---x-10-x-10-10-----x-10-x-10-10-----x-10-x-10-10-----x-10-x-10-10-----|
b---x-11-x-11-11-----x-11-x-11-11-----x-11-x-11-11-----x-11-x-11-11-----|
e---x-10-x-10-10-----x----------------x-10-x-10-10-----x----------------|

E----------------------------------------------------------------|
a----------------------------------------------------------------|
d---x-10-x-10-10----x-6-x-6-6-----x-8-x-8-8-----x----x----8------|
g---x-8--x-8--8-----x-8-x-8-8-----x-7-x-7-7-----x-8--x-8--8------|
b---x-9--x-9--9-----x-9-x-9-9-----x-8-x-8-8-----x-11-x-11-11-----|
e---x-8--x-8--8-----x-------------x-6-x-6-6-----x-11-x-11-11-----|

E-----------------------------------------------------------------------|
a-----------------------------------------------------------------------|
d---x-12-x-12-12-----x-12-x-9--9------x-12-x-12-12-----x-12-x-9--9------|
g---x-10-x-10-10-----x-10-x-10-10-----x-10-x-10-10-----x-10-x-10-10-----|
b---x-11-x-11-11-----x-11-x-11-11-----x-11-x-11-11-----x-11-x-11-11-----|
e---x-10-x-10-10-----x-13---13-13-----x-10-x-10-10-----x-13---13-13-----|

E-----------------------------------------------------------------]
a-----------------------------------------------------------------]
d---x-10-x-10-10-----x-6-x-6-6-----x-8-x-8-8-----x----x----8------]
g---x-8--x-8--8------x-8-x-8-8-----x-7-x-7-7-----x-8--x-8--8------]
b---x-9--x-9--9------x-9-x-9-9-----x-8-x-8-8-----x-11-x-11-11-----]
e---x-8--x-8--8------x-------------x-6-x-6-6-----x-11-x-11-11-----]

Lyrics:

1st: 'We have our master plan, bottled and canned, living in the 3-5-2. Steps 1 and 2: 
walk home drunk, wake up confused with a stranger next to you.'

3rd: 'We have our history. Just you and me, but our future gets talked away. Steps 3 and 
4: stayin' drunk, sit on this porch, planning out how to escape.'



PART 2: 2nd and 3rd set of lyrics.

E--------------------------------------------------------------------|
a--------------------------------------------------------------------|
d---x-12-x-12-12-----x-10-x-10-10-----x-8-x-8-8-----x----x----8------|
g---x-10-x-10-10-----x-8--x-8--8------x-7-x-7-7-----x-8--x-8--8------|
b---x-11-x-11-11-----x-9--x-9--9------x-8-x-8-8-----x-11-x-11-11-----|
e---x-10-x-10-10-----x-8--x-8--8------x-6-x-6-6-----x-11-x-11-11-----|

E--------------------------------------------------------------------|
a--------------------------------------------------------------------|
d---x-12-x-12-12-----x-10-x-10-10-----x-8-x-8-8-----x----x----8------|
g---x-10-x-10-10-----x-8--x-8--8------x-7-x-7-7-----x-8--x-8--8------|
b---x-11-x-11-11-----x-9--x-9--9------x-8-x-8-8-----x-11-x-11-11-----|
e---x-10-x-10-10-----x-8--x-8--8------x-6-x-6-6-----x-11-x-11-11-----|

E--------------------------------------------------------------------|
a--------------------------------------------------------------------|
d---x-12-x-12-12-----x-10-x-10-10-----x-8-x-8-8-----x----x----8------|
g---x-10-x-10-10-----x-8--x-8--8------x-7-x-7-7-----x-8--x-8--8------|
b---x-11-x-11-11-----x-9--x-9--9------x-8-x-8-8-----x-11-x-11-11-----|
e---x-10-x-10-10-----x-8--x-8--8------x-6-x-6-6-----x-11-x-11-11-----|

E----------------------------------|----x)--------||----x)---------]
a----------------------------------|---6)))/10-----||---6)))-------]
d---x-10-x-10-10-----x-10-x-10-----|---8)))/12-----||---8)))-------]
g---x-8--x-8--8------x-8--x-8------|---8)))/12-----||---8)))-------]
b---x-9--x-9--9------x-9--x-9------|---8)))/12-----||---6)))-------]
e---x-8--x-8--8------x-8--x-8------|---6)))/10-----||---6)))-------]

Lyrics:

2nd: 'The copied costumes and conversations seem to be totally makin' this into a 
strip-mall kind of town. I used my credit card to buy alcohol, student loans spent at the 
mall. And I may be goin' broke, but I'm never broken down'

4th: 'Cause we're to truck-stops off the inner-state promise land with a twist of fate. 
We're the town for all the lost and found. So sleep tight in this smokey room. Still 
buzzed from this afternoon. And I may be goin' broke, but I'm never broken down.'





THE STATE OF FLORIDA
By: Less Than Jake
Tabbed By: Kenny Fabritius



Key:     /=slide     x=mute     h=hammer (in this case hammer off)     |=first time played
            ||=second time played

VERSE: Play twice consecutively.

E---666-666-666-666-----------------------------------------------------|
a---888-888-888-888---666-666-666---------------333---------777---------|
d---888-888-888-888---888-888-888---------555---555---------999---------|
g---------------------888-888-888---555---777---555---555---999---555---|
b-----------------------------------666---------------666---------777---|
e-----------------------------------------------------------------------|

E--------------------]
a---8-8-8------------]
d---101010-----------]
g---101010---555-----]
b------------777-----]
e--------------------]

Lyrics

1. 'He said Florida's slowly sinking, sinking into the ocean. He says the housing tracks 
are built on half fact and the rest half fiction. And I can't argue that statistics are 
becoming the definition of just standing still between glass and steal drowning in 
this quicksand.'

2. 'Between the garbage and the concrete, to the construction grounds under our feet. A 
Boomtown gone bust, a goldmine to dust, disintegrating. Where latch-key kids from 
divorces, transplants and the foreign tourists fill up vacation stops turn to 
trailer parks 'cause this state is fading.'



CHORUS: Play twice consecutively.

E---6-------------8-8-8-8----------6----------------------------------|
a---8---6/8---6---10101010---6-6---8---6/8---6------------8-----------|
d---8---8/10--8---10101010---8-8---8---8/10--8---666666-5-8-----------|
g------------------------------------------------888888-8-------------|
b---------------------------------------------------------------------|
e---------------------------------------------------------------------|

E---6-------------8-8-8-8----------6-------------x---4-4-4-4---3------]
a---8---6/8---6---10101010---6-6---8---6/8---6---x---6-6-6-6---5h-3---]
d---8---8/10--8---10101010---8-8---8---8/10--8---x----------------3---]
g------------------------------------------------x--------------------]
b------------------------------------------------x--------------------]
e------------------------------------------------x--------------------]

Lyrics:

'And the city skyline hasn't looked the same since the boom in south florida's real 
estate. It's turning into more than I can take. Too much, too soon, too little, too late.'



BRIDGE CHORDs: It's not hard to figure the solo, so give it a try, but here are the 
bridge chords, you can figure out the rhythm on your own as well.

E---6------------6------------3---6-------|-------||-------------------]
a---8---6---8----8---6---8----5---8---6---|---3---||---8--8--8----8----]
d---8---8---10---8---8---10---5---8---8---|---5---||---8--8--8----10---]
g-------8---10-------8---10-----------8---|---5---||---10-10-10---10---]
b-----------------------------------------|-------||-------------------]
e-----------------------------------------|-------||-------------------]



Outro:

E---------------------------------------6---6/0---]
a-----------8-----------8-----------8---8---8/0---]
d---66666-5-8---66666-5-8---66666-5-8---8---8/0---]
g---88888-8-----88888-8-----88888-8---------------]
b-------------------------------------------------]
e-------------------------------------------------]

Lyrics: 'Too little, too late.'
Suggest correction
Give kudos to tab author, rate the tab!
1 2 3 4 5
comments
print report bad tab
guest
You may want to rate the tab now too:
select rating
Wanna post a correction for this tab? Suggest correction