Oops, an error
Loading. Please wait.

Conviction Notice Tab

version 2
version 2

Whole song

1,989 views 3 this week
no commentswrite comment
1 2 3 4 5
please rate
add to favorites
launch autoscroll
font size
0
reset
how to read this tab
guitar tuner
Autoscroll
slow
fast
+/-
esc
set tempo
stop
Help us to improve Ultimate-Guitar.com Take our survey!
×
Tuning: Standard

Intro (0-0:20 Sec)
e|------------------------------------|
B|------------------------------------|
G|--10101010---7777---8888------------|
D|--10101010---7777---8888---8888-----| x4
A|--8-8-8-8----5555---6666---8888-----|
E|---------------------------6666-----|

Verse (Ska) (0:21-0:34)
e|-5x5x5x5x3x3x3x3x6x6x6x6x6x6x6x6x---|
B|-6x6x6x6x5x5x5x5x6x6x6x6x6x6x6x6x---|
G|-5x5x5x5x5x5x5x5x7x7x7x7x7x7x7x7x---|
D|------------------------------------| x3
A|------------------------------------|
E|------------------------------------|

Verse Ending (Ska) (0:35-0:37)
e|-6x6x6x6x6x6x6x6x---|
B|-8x8x8x8x6x6x6x6x---|
G|-8x8x8x8x7x7x7x7x---|
D|--------------------| x1
A|--------------------|
E|--------------------|

Chorus (0:38-0:57)
e|------------------------------------|
B|------------------------------------|
G|--10101010---7777---8888------------|
D|--10101010---7777---8888---8888-----| x4
A|--8-8-8-8----5555---6666---8888-----|
E|---------------------------6666-----|

Intro (0:58-1:07)
e|------------------------------------|
B|------------------------------------|
G|--10101010---7777---8888------------|
D|--10101010---7777---8888---8888-----| x2
A|--8-8-8-8----5555---6666---8888-----|
E|---------------------------6666-----|

Verse 2 (Ska) (1:08-1:21)
e|-5x5x5x5x3x3x3x3x6x6x6x6x6x6x6x6x---|
B|-6x6x6x6x5x5x5x5x6x6x6x6x6x6x6x6x---|
G|-5x5x5x5x5x5x5x5x7x7x7x7x7x7x7x7x---|
D|------------------------------------| x3
A|------------------------------------|
E|------------------------------------|

Verse Ending (Ska) (1:22-1:26)
e|-6x6x6x6x6x6x6x6x5x5x5x5------------|
B|-8x8x8x8x6x6x6x6x4x4x4x4------------|
G|-8x8x8x8x7x7x7x7x5x5x5x5------------|
D|------------------------------------| x1
A|------------------------------------|
E|------------------------------------|

Bridge (1:27-1:46)
e|--------------------------------------------------|
B|--------------------------------------------------|
G|--55555555---33333333---7777--8888----------------|
D|--55555555---33333333---7777--8888---88888888-----| x2
A|--33333333---11111111---5555--6666---88888888-----|
E|-------------------------------------66666666-----|

Chorus (1:47-2:06)
e|------------------------------------|
B|------------------------------------|
G|--10101010---7777---8888------------|
D|--10101010---7777---8888---8888-----| x4
A|--8-8-8-8----5555---6666---8888-----|
E|---------------------------6666-----|

Chorus 2 (Breakdown) (Ska) (2:07-2:15)
e|-5x5x5x5x5x5x5x5x3x3x3x3x6x6x6x6x---|
B|-6x6x6x6x6x6x6x6x5x5x5x5x6x6x6x6x---|
G|-5x5x5x5x5x5x5x5x5x5x5x5x7x7x7x7x---|
D|------------------------------------| x1
A|------------------------------------|
E|------------------------------------|

e|-5x5x5x5x5x5x5x5x3x3x3x3x6---|
B|-6x6x6x6x6x6x6x6x5x5x5x6x6---|
G|-5x5x5x5x5x5x5x5x5x5x5x5x7---|
D|-----------------------------| x1
A|-----------------------------|
E|-----------------------------|

Chorus (2:17-2:31)
e|------------------------------------|
B|------------------------------------|
G|--10101010---7777---8888------------|
D|--10101010---7777---8888---8888-----| x3
A|--8-8-8-8----5555---6666---8888-----|
E|---------------------------6666-----|

Order Of Song:

Intro  x4
Verse
Chorus
Intro  x2
Verse 2
Bridge
Chorus
Chorus 2
Chorus

Hi Guys I'm sorry it's a long tab, I just wanted to get every chord in because I love
song so much.   Jamie
Suggest correction
Give kudos to tab author, rate the tab!
1 2 3 4 5
comments
print report bad tab
guest
You may want to rate the tab now too:
select rating
Please do not post tabs as comments. Select "correction" instead!