Oops, an error
Loading. Please wait.

Danny Says Bass Tab

541 views 1 this week
no commentswrite comment
1 2 3 4 5
3 more votes to show rating
add to favorites
launch autoscroll
font size
0
reset
guitar tuner
Autoscroll
slow
fast
+/-
esc
set tempo
stop
Help us to improve Ultimate-Guitar.com Take our survey!
×
Author
Difficulty
intermediate
This tabs real fun to play to. I recommend using picks for a brighter sound on this song.


Intro:


--------------------------------------------|
--------------------666666--x2--444444--x2--|
--------------------------------------------|
--4--4--444444--x4--------------------------|


Verse:


--------------------------------------------|
--------------------------------------------|      x2
------3---------3--------4--------1--2--4---|
--44-----4--44-----4--6-----6--2------------|


--------------------------------------------|      x2
-------------------------------4--3--1-1----|
------3---------3--------4----------------4-|
--44-----4--44-----4--6-----6---------------|


Chorus:


---------------------------------------------------|
-------------------------3--4--6-------------------|      x4
------3---------3-----4--------------4--2--1-------|
--44-----4--44-----4--------------2----------------|

(Play both verse and chorus over again)


--------------------------------------------|
--------------------------------------------|
-------------4444---------------------------|
--444444444--------22222--------------------|


--------------------------------------------|
--------------444444--3333------------------|
----------------------------444444----------|
--4444444444--------------------------------|


-----------|
-----------|   x2
--------4--|
--4--2-----|


--------------------------------------------|
--------------------------------------------|     x2
------------------------444444--------------|
--444444444444--222222----------------------|


-----------------------------|
-----------------------------|    x1
---------------4------4------|
--22222222222-----22-----22--|


(then play the verse x4)
Suggest correction
Give kudos to tab author, rate the tab!
1 2 3 4 5
comments
print report bad tab
guest
You may want to rate the tab now too:
select rating
Wanna post a correction for this tab? Suggest correction