Oops, an error
Loading. Please wait.

Danny Says Tab

517 views 3 this week
no commentswrite comment
1 2 3 4 5
please rate
add to favorites
launch autoscroll
font size
0
reset
how to read this tab
guitar tuner
Autoscroll
slow
fast
+/-
esc
set tempo
stop
Help us to improve Ultimate-Guitar.com Take our survey!
×
Contributor
Keasby 218

Artist: Less Than Jake
Song: Danny says


Tuning: Standart (E A D G B e)

Intro (distortion)


e-------------------------------------------------------------------------|
B-------------------------------------------------------------------------|
G-----------------------------------------------------------------6-6-6---|
D----6~-----6~------6-6-6-6-6-6-6-6-6-6-6-6-6-6-6-6-6-6---4-4-4---6-6-6---|
A----6~-----6~------6-6-6-6-6-6-6-6-6-6-6-6-6-6-6-6-6-6---4-4-4---4-4-4---|
E----4~-----4~------4-4-4-4-4-4-4-4-4-4-4-4-4-4-4-4-4-6---2-2-2-----------|


Verse (clean)


E----6-6-6-6----8-8-8-8---4-4-4-------------------|      4x
B----6-6-6-6----8-8-8-8---5-5-5-------------------|
G----5-5-5-5----7-7-7-7---6-6-6-------------------|
D----6-6-6-6----8-8-8-8---6-6-6-------------------|
A----6-6-6-6----8-8-8-8---4-4-4-------------------|
E----4-4-4-4----6-6-6-6---------------------------|

Chorus

e-----------------------------------------------------------------------------|
B-----------------------------------------------------------------------------|
G---------------------------6-6-6-6-6---------------------------6-6-6-6-6-----|
D---6-6-6-6-6---4-4-4-4-4---6-6-6-6-6---6-6-6-6-6---9-9-9-9-9---6-6-6-6-6-----|
A---6-6-6-6-6---4-4-4-4-4---4-4-4-4-4---6-6-6-6-6---9-9-9-9-9---4-4-4-4-4-----|
E---4-4-4-4-4---2-2-2-2-2---------------4-4-4-4-4---7-7-7-7-7-----------------|

Verse (clean)

                4x
      _________/  \______________
     /                           \
E----6-6-6-6----8-8-8-8----6-6-6-6-------------------|
B----6-6-6-6----8-8-8-8----5-5-5-5-------------------|
G----5-5-5-5----7-7-7-7----6-6-6-6-------------------|
D----6-6-6-6----8-8-8-8----6-6-6-6-----8----8--------|
A----6-6-6-6----8-8-8-8----4-4-4-4-----8----8--------|
E----4-4-4-4----6-6-6-6----------------6----6--------|


e-----------------------------------------------------------------------------|     2x
B-----------------------------------------------------------------------------|
G--------------------6-6-6----4-4-4----------------------6-6-6---8-8-8--------|
D-----6-6-6-6-6-6----6-6-6----4-4-4--------6-6-6-6-6-6---6-6-6---8-8-8--------|
A-----6-6-6-6-6-6----4-4-4----2-2-2--------6-6-6-6-6-6---4-4-4---6-6-6--------|
E-----4-4-4-4-4-4--------------------------4-4-4-4-4-4------------------------|

e------------------------------------------------------------------|4x
B------------------------------------------------------------------|
G-------------------------------------------------------6-6-6-6-6--|
D----6-6-6-6-6-6-6-6-6-6-6-6-6-6-6-6-6-6---4-4-4-4-4----6-6-6-6-6--|
A----6-6-6-6-6-6-6-6-6-6-6-6-6-6-6-6-6-6---4-4-4-4-4----4-4-4-4-4--|
E----4-4-4-4-4-4-4-4-4-4-4-4-4-4-4-4-4-4---2-2-2-2-2---------------|
(at 4. Time let the last 2 chords ring)

e---------------------------------------|     2x  ( work rythem out)
B---------------------------------------|
G--------------------6-6-6----4-4-4-----|
D-----6-6-6-6-6-6----6-6-6----4-4-4-----|
A-----6-6-6-6-6-6----4-4-4----2-2-2-----|
E-----4-4-4-4-4-4-----------------------|


e-------------------------|-------------------------------------------------------| 4x
B-------------------------|-------------------------------------------------------|
G----------------6------6-|------------------------------------------------6-6-6--|
D----6~-----6~---6--6---6-|--6-6-6-6-6-6-6-6-6-6-6-6-6-6-6-6-6-6---4-4-4---6-6-6--|
A----6~-----6~---4--6---4-|--6-6-6-6-6-6-6-6-6-6-6-6-6-6-6-6-6-6---4-4-4---4-4-4--|
E----4~-----4~------4-----|--4-4-4-4-4-4-4-4-4-4-4-4-4-4-4-4-4-4---2-2-2----------|


e------------------------------------------------------|
B------------------------------------------------------|
G----------------------------------6~-----------6~-----|
D----8~---4~---6~--------4~---6~---6~------4~---6~-----|
A----8~---4~---6~--------4~---6~---4~------4~---4~-----|
E----6~---2~---4~--------2~---4~-----------2~----------|


e------------------------------------------------------------------|4x
B------------------------------------------------------------------|
G-------------------------------------------------------6-6-6-6-6--|
D----6-6-6-6-6-6-6-6-6-6-6-6-6-6-6-6-6-6---4-4-4-4-4----6-6-6-6-6--|
A----6-6-6-6-6-6-6-6-6-6-6-6-6-6-6-6-6-6---4-4-4-4-4----4-4-4-4-4--|
E----4-4-4-4-4-4-4-4-4-4-4-4-4-4-4-4-4-4---2-2-2-2-2---------------|
(at 4. Time let the last 2 chords ring)
comments
We did not receive enough feedback on this tab! Please rate:
print report bad tab
1 2 3 4 5
I want to post or [tab]
guest
You may want to rate the tab now too:
select rating
Please do not post tabs as comments. Select "correction" instead!