Oops, an error
Loading. Please wait.

Does The Lion City Still Roar Bass

version 1
version 1

Whole song

Interactive

8,210 views 3 this week
3 commentsread comments
1 2 3 4 5
x 3
add to favorites
launch autoscroll
font size
0
reset
guitar tuner
Autoscroll
slow
fast
+/-
esc
set tempo
stop
-------------------------------------------------------------------------------
                             Does The Lion City Still Roar? - Less Than Jake
-------------------------------------------------------------------------------

Tabbed By : identityxcrysis
e-mail: xrunawayboyx@hotmail.com

Tuning:Standard (EADG)



Intro -

G|-------------------------------------------|
D|-------------------------------------------|
A|-2-2-222-----------------------------------|  x2
E|---------3-33-3333-0-0-000-2-22-2222-------|

G|-----------------------------------------|
D|-----------------------------------------|
A|-2-2-222------------5-5-555--------------| x1
E|---------3-33-3333----------2-22-2222----|

Then play the first part again on the last time



First Verse
The rhythm here is pretty easy, all the note values are equal
Thanks Skaman27 for the fix on this section!


G|------------------3-4---------------------|
D|----4-5-2-4-0-2-------4-5-2-4-0-2---------|
A|-2--------------------------------4-------|
E|------------------------------------------|


G|--------------------------------------------|
D|--4-5-2-4-0-2------4-7-4--------------------|
A|-2------------4--5-----------4-7-4----------|
E|---------------------------5----------------|

First chorus

G|-------------------------------------------|
D|-------------------------------------------|
A|-2-2-222-----------------------------------|
E|---------3-33-3333-0-0-000-2-22-2222-------|

G|-----------------------------------------|
D|-----------------------------------------|
A|-2-2-222------------5-5-555--------------|
E|---------3-33-3333----------2-22-2222----|

"The city feels like a cage..."

G|---------------------------------------------|
D|---------------------------------------------|
A|-0-0-000-2-22-2222---------5-55-5555---------|
E|-------------------3-3-333-------------------|

"It's almost set to explode..."
G|--------------------------------------------|
D|---------------------------4--4--2--4-------|
A|--------------------------------------------|
E|-3-3-333-3-33-3333-2-2-222------------------|

Post-chorus

G|-----------------------------------------------|
D|---------------------7\----4-7-4---------------|
A|-------------------------5----------4-7-4------|
E|-7\---7\---5-7-7-7\---------------5------------|


Verse 2 (same as verse 1)

G|------------------2-4---------------------|
D|----4-5-2-4-0-2-------4-5-2-4-0-2---------|
A|-2--------------------------------4-------|
E|------------------------------------------|


G|--------------------------------------------|
D|--4-5-2-4-0-2------4-7-4--------------------|
A|-2------------4--5-----------4-7-4----------|
E|---------------------------5----------------|

Chorus 2 (same as chorus one except the fill, just play each phrase twice as many times)

G|-------------------------------------------|
D|-------------------------------------------|
A|-2-2-222-----------------------------------|
E|---------3-33-3333-0-0-000-2-22-2222-------|

G|-----------------------------------------|
D|-----------------------------------------|
A|-2-2-222------------5-5-555--------------|
E|---------3-33-3333----------2-22-2222----|

"The city feels like a cage..."

G|---------------------------------------------|
D|-----------------------------4-7-4h5p4-------|
A|-0-0-000-2-22-2222---------5-----------5\----|
E|-------------------3-3-333-------------------|

"It's almost set to explode..."
G|--------------------------------------------|
D|---------------------------4--4--2--4-------|
A|--------------------------------------------|
E|-3-3-333-3-33-3333-2-2-222------------------|


Bridge (Basically the intro)

G|-------------------------------------------|
D|-------------------------------------------|
A|-2-2-222-----------------------------------| 
E|---------3-33-3333-0-0-000-2-22-2222-------|

G|-----------------------------------------|
D|-----------------------------------------|
A|-2-2-222------------5-5-555--------------| 
E|---------3-33-3333----------2-22-2222----|

Then when the guitar palm-mutes, you come in on the last note with the octave

G|--------------|
D|--44444444----|
A|--------------|
E|--------------|

The last two phrases are just:
G|-----------------------------------------|
D|----------------------------4-44-4444----|
A|-2-2-222------------5-5-555--------------| 
E|---------3-33-3333-----------------------|

And end with 

G|--------------|
D|--------------|
A|--------------|
E|-3~---2~------|

Suggest correction
Give kudos to tab author, rate the tab!
1 2 3 4 5
comments
print report bad tab
3 comments total.
0 reply
Jay Awesome 115 Jun 05, 2008 07:43 PM

I actually just herd this song its f**kin' awesome. Can't wait for the album.

+1 reply
skaman27 112 Jun 24, 2008 05:28 PM

I know its a REALLY minor difference but i think in the verse the A (2nd fret on the G string) that you put is actually an A# (3rd fret) like this:
G|------------------3-4---------------------|
D|----4-5-2-4-0-2-------4-5-2-4-0-2---------|
A|-2--------------------------------4-------|
E|------------------------------------------|

guest
You may want to rate the tab now too:
select rating
Wanna post a correction for this tab? Suggest correction