Oops, an error
Loading. Please wait.

Does The Lion City Still Roar Tab

version 1
version 1

Intro

Whole song

Interactive

370 views 1 this week
no commentswrite comment
1 2 3 4 5
3 more votes to show rating
add to favorites
launch autoscroll
font size
0
reset
how to read this tab
guitar tuner
Autoscroll
slow
fast
+/-
esc
set tempo
stop
Help us to improve Ultimate-Guitar.com Take our survey!
×
Author
Difficulty
intermediate
This is the guitar transcription of the Horns if you want incorporate more guitar into it.

(Beginning)
e-10-10p9p7-7---10-9-9-10-12-10-9-7-9-|
B-------------8-----------------------|
G-------------------------------------|
D-------------------------------------|
A-------------------------------------|
E-------------------------------------|

e-10-10p9p7-7--10-9-9-10-14-12-10-9-7-|
B------------8------------------------|
G-------------------------------------|
D-------------------------------------|
A-------------------------------------|
E-------------------------------------|

e-10-10p9p7-7---10-9-9-10-12-10-9-7-9-|
B-------------8-----------------------|
G-------------------------------------|
D-------------------------------------|
A-------------------------------------|
E-------------------------------------|

Post Chorus
                 let ring
e--12-10--15-12-(10-9)---------------|
B------------------------------------|
G------------------------------------|
D------------------------------------|
A------------------------------------|
E------------------------------------|

Fill before next verse

e--7-9-10-12-10-9-7-6-9p8-|
B-------------------------|
G-------------------------|
D-------------------------|
A-------------------------|
E-------------------------|

Outro

e-9-10-10p9p7p7----------|
B------------------------|
G------------------------|
D------------------------|
A------------------------|
E------------------------|

e-9-14-12-10-9-7---------|
B------------------------|
G------------------------|
D------------------------|
A------------------------|
E------------------------|

Not %100 I know but pretty damn close

feel free to make any corrections
Suggest correction
Give kudos to tab author, rate the tab!
1 2 3 4 5
comments
print report bad tab
guest
You may want to rate the tab now too:
select rating
Wanna post a correction for this tab? Suggest correction