Oops, an error
Loading. Please wait.

Does The Lion City Still Roar Tab

version 1
version 1

Intro

Whole song

Interactive

8,445 views 6 this week
7 commentsread comments
1 2 3 4 5
excellent!
x 8
add to favorites
launch autoscroll
font size
0
reset
how to read this tab
guitar tuner
Tab Pro tools
  • play this tab
  • loop segment
  • change instrument
  • show fretboard
  • metronome
Autoscroll
slow
fast
+/-
esc
set tempo
stop
Contributor
-------------------------------------------------------------------------------
    Does The Lion City Still Roar? - Less Than Jake
-------------------------------------------------------------------------------
Tabbed by: identityxcrysis
Email:xrunawayboyx@hotmail.com

Tuning: Standard (EADGBe)

Intro -

e|---------------------------------------|
B|---------------------------------------|
G|-4-4-444-------------------------------|
D|-4-4-444--5-55-5555-2-2-222-4-44-4444--|  x2
A|-2-2-222--5-55-5555-2-2-222-4-44-4444--|
E|----------3-33-3333-0-0-000-2-22-2222--|

e|---------------------------------------|
B|---------------------------------------|
G|-4-4-444------------7-7-777------------|
D|-4-4-444--5-55-5555-7-7-777-4-44-4444--|
A|-2-2-222--5-55-5555-5-5-555-4-44-4444--|
E|----------3-33-3333---------2-22-2222--|

e|---------------------------------------|
B|---------------------------------------|
G|-4-4-444-------------------------------|
D|-4-4-444--5-55-5555-2-2-222-4-44-4444--|
A|-2-2-222--5-55-5555-2-2-222-4-44-4444--|
E|----------3-33-3333-0-0-000-2-22-2222--|

Verse 1

e|-7-7-x-7-x-7-x-7-x-7-x-7-x-7-x-7-x--------|
B|-7-7-x-7-x-7-x-7-x-8-x-8-x-8-x-8-x--------|
G|-8-8-x-8-x-8-x-8-x-9-x-9-x-9-x-9-x--------|
D|------------------------------------------| x3
A|------------------------------------------|
E|------------------------------------------|

e|-5-5-x-5-x-5-x-5-x-5-x-5-x-5-x-5-x---|
B|-7-7-x-7-x-7-x-7-x-5-x-5-x-5-x-5-x---|
G|-7-7-x-7-x-7-x-7-x-6-x-6-x-6-x-6-x---| x1
D|-------------------------------------|
A|-------------------------------------|
E|-------------------------------------|

Chorus-

e|---------------------------------------|
B|---------------------------------------|
G|-4-4-444-------------------------------|
D|-4-4-444--5-55-5555-2-2-222-4-44-4444--| 
A|-2-2-222--5-55-5555-2-2-222-4-44-4444--|
E|----------3-33-3333-0-0-000-2-22-2222--|

e|---------------------------------------|
B|---------------------------------------|
G|-4-4-444------------7-7-777------------|
D|-4-4-444--5-55-5555-7-7-777-4-44-4444--|
A|-2-2-222--5-55-5555-5-5-555-4-44-4444--|
E|----------3-33-3333---------2-22-2222--|

"The city feels like a cage..."
e|--------------------------------------------|
B|--------------------------------------------|
G|-2-2-x-2-2-4-44-4444------------7-77-7777---|
D|-2-2-x-2-2-4-44-4444-5-5-x-5-5--7-77-7777---|
A|-0-0-x-0-0-2-22-2222-5-5-x-5-5--5-55-5555---|
E|---------------------3-3-x-3-3--------------|

"It's almost set to explode..."
e|---------------------------------------|
B|---------------------------------------|
G|---------------------------------------|
D|-5-5-5555-55-5555-4-4-4444-44-4444-----|
A|-5-5-5555-55-5555-4-4-4444-44-4444-----|
E|-3-3-3333-33-3333-2-2-2222-22-2222-----|


Post-chorus (right before the horn fill)

e|-7-7-x-7-x-7-x-7-x-7-x-7-x-7-x-7-x--------|
B|-7-7-x-7-x-7-x-7-x-8-x-8-x-8-x-8-x--------|
G|-8-8-x-8-x-8-x-8-x-9-x-9-x-9-x-9-x--------|
D|------------------------------------------| x3
A|------------------------------------------|
E|------------------------------------------|


e|-5-5-x-5-x-5-x-5-x-5-x-5-x-5-x-5-x---|
B|-7-7-x-7-x-7-x-7-x-5-x-5-x-5-x-5-x---|
G|-7-7-x-7-x-7-x-7-x-6-x-6-x-6-x-6-x---| x1
D|-------------------------------------|
A|-------------------------------------|
E|-------------------------------------|



Verse 2 (same as verse 1, ya know?) -

e|-7-7-x-7-x-7-x-7-x-7-x-7-x-7-x-7-x--------|
B|-7-7-x-7-x-7-x-7-x-8-x-8-x-8-x-8-x--------|
G|-8-8-x-8-x-8-x-8-x-9-x-9-x-9-x-9-x--------|
D|------------------------------------------| x3
A|------------------------------------------|
E|------------------------------------------|


e|-5-5-x-5-x-5-x-5-x-5-x-5-x-5-x-5-x---|
B|-7-7-x-7-x-7-x-7-x-5-x-5-x-5-x-5-x---|
G|-7-7-x-7-x-7-x-7-x-6-x-6-x-6-x-6-x---| x1
D|-------------------------------------|
A|-------------------------------------|
E|-------------------------------------|

Chorus 2 (almost like Chorus 1!)

e|---------------------------------------|
B|---------------------------------------|
G|-4-4-444-------------------------------|
D|-4-4-444--5-55-5555-2-2-222-4-44-4444--| 
A|-2-2-222--5-55-5555-2-2-222-4-44-4444--|
E|----------3-33-3333-0-0-000-2-22-2222--|

e|---------------------------------------|
B|---------------------------------------|
G|-4-4-444------------7-7-777------------|
D|-4-4-444--5-55-5555-7-7-777-4-44-4444--|
A|-2-2-222--5-55-5555-5-5-555-4-44-4444--|
E|----------3-33-3333---------2-22-2222--|

"The city feels like a cage..."
e|--------------------------------------------|
B|--------------------------------------------|
G|-2-2-x-2-2-4-44-4444------------7-77-7777---|
D|-2-2-x-2-2-4-44-4444-5-5-x-5-5--7-77-7777---| x3
A|-0-0-x-0-0-2-22-2222-5-5-x-5-5--5-55-5555---|
E|---------------------3-3-x-3-3--------------|

"And now its gonna explode
e|---------------------------------------|
B|---------------------------------------|
G|---------------------------------------|
D|-5-5-5555-55-5555-4-4-4444-44-4444-----|
A|-5-5-5555-55-5555-4-4-4444-44-4444-----|
E|-3-3-3333-33-3333-2-2-2222-22-2222-----|

reintro/bridgey thing (sorta)

e|---------------------------------------|
B|---------------------------------------|
G|-4-4-444-------------------------------|
D|-4-4-444--5-55-5555-2-2-222-4-44-4444--| 
A|-2-2-222--5-55-5555-2-2-222-4-44-4444--|
E|----------3-33-3333-0-0-000-2-22-2222--|

e|---------------------------------------|
B|---------------------------------------|
G|-4-4-444------------7-7-777------------|
D|-4-4-444--5-55-5555-7-7-777-4-44-4444--|
A|-2-2-222--5-55-5555-5-5-555-4-44-4444--|
E|----------3-33-3333---------2-22-2222--|

e|---------------------------------------|
B|---------------------------------------|
G|---------------------------------------|
D|-44444444------------------------------| 
A|-22222222--55555555-22222222-44444444--|
E|-----------33333333-00000000-22222222--|

PM-----------------------------------------|


e|---------------------------------------|
B|---------------------------------------|
G|------------------------7777-----------|
D|-44444444-----------77777777-44444444--| 
A|-22222222--55555555-55555555-44444444--|
E|-----------33333333----------22222222--|

PM------------------------|
That gradual release thing? Yea..do it here!

Outro
Play this until the end
e|---------------------------------------|
B|---------------------------------------|
G|-4-4-444------------7-7-777------------|
D|-4-4-444--5-55-5555-7-7-777-4-44-4444--|
A|-2-2-222--5-55-5555-5-5-555-4-44-4444--|
E|----------3-33-3333---------2-22-2222--|



And then with this

e|--------------|
B|--------------|
G|--------------|
D|-5~--4~-------|
A|-5~--4~-------|
E|-3~--2~-------|



| x  Mute note
===============================================================================
comments
print report bad tab
7 comments total. Showing first comments.
0 reply
Jay Awesome wrote on June 10 2008, 09:39 pm

-print- Oh yeah!

0 reply
skaman27 wrote on June 22 2008, 11:53 am

I'm pretty sure the verse goes like
e|-7-7-x-7-x-7-x-7-x-7-x-7-x-7-x-7-x--------|
B|-7-7-x-7-x-7-x-7-x-8-x-8-x-8-x-8-x--------|
G|-7-7-x-7-x-7-x-7-x-7-x-7-x-7-x-7-x--------|
D|------------------------------------------| x3
A|------------------------------------------|
E|------------------------------------------|

0 reply
starzsp wrote on July 11 2008, 12:52 pm

nice tab :)

I want to post or [tab]
guest
You may want to rate the tab now too:
select rating
Please do not post tabs as comments. Select "correction" instead!