Oops, an error
Loading. Please wait.

Dont Fall Asleep On The Subway Tab

version 1
version 1

Whole song

907 views 3 this week
no commentswrite comment
1 2 3 4 5
accurate
x 4
add to favorites
launch autoscroll
font size
0
reset
how to read this tab
guitar tuner
Tab Pro tools
  • play this tab
  • loop segment
  • change instrument
  • show fretboard
  • metronome
Autoscroll
slow
fast
+/-
esc
set tempo
stop
Contributor
Don't fall asleep on the subway
Less Than Jake
Track 6 - In with the out Crowd


intro
-------------------------|-----------|
-------------------------|-----------|
--------------------9-9--|-----------|
--9--7--2--7--9--7--9-9--|--9--7-----|
--9--7--2--7--9--7--7-7--|--9--7-----|
--7--5--0--5--7--5-------|--7--5-----|
		       X4


verse
-------------|-----------------------|
-------------|-----------------------|
--9-9--------|--------------9-9------|
--9-9--9--7--|--2--7--9--7--9-9------|
--7-7--9--7--|--2--7--9--7--7-7------|
-------7--5--|--0--5--7--5-----------|
	   x4

I could hear all the plans we had when the wind hits me just right
and i'm so sick of wanting all the things i'm haunted by
my sympathy goes to the oldest joke that's survived another year
i wonder where i'm going from where i'm at i wonder why i'm still here.


pre chorus

--------------------------|
--------------------------|
-6--9--6------------------|
-6--9--6------------------|
-4--7--4------------------|
--------------------------|
       pm

the writing on the subway walls reminds me why your words don't
console me anymore while i'm lying wide awake on my bedroom floor.

chorus
--------------------------|
--------------------------|
-----------------6-----9--|
--9--7--2--7--9--6--7--9--|
--9--7--2--7--9--4--7--7--|
--7--5--0--5--7-----5-----|
		       X2

i'm the lucky one, i'm getting out of here this is my last chance to disappear.
i'm the lucky one, i'm getting out of here, i think i may freeze on the last days of summertime

Intro

verse

the local papers always opened up to obituaries and engagements
cause i keep track of all the fresh starts and the dying famous
and there's a hate of second-hand smoke underneath the summer stars
along with conversations we had on this subway car.

pre chorus

chorus *2

bridge
-------|-----------------------|
-------|-----------------------|
-6--9--|--7--9-----------------|
-6--9--|--7--9-----------------|
-4--7--|--5--7-----------------|
-------|-----------------------|
     x3

remember when, when you said,
you said take these words and do what you want with them

intro *2

pre chorus

chorus *3

intro *2

-----------
this tab was created using TaBbed a free tab viewer and creator
www.suspectsoftware.tk
comments
print report bad tab
I want to post or [tab]
guest
You may want to rate the tab now too:
select rating
Please do not post tabs as comments. Select "correction" instead!