Oops, an error
Loading. Please wait.

Faction Bass Tab

575 views 1 this week
no commentswrite comment
1 2 3 4 5
please rate
add to favorites
launch autoscroll
font size
0
reset
guitar tuner
Autoscroll
slow
fast
+/-
esc
set tempo
stop
Help us to improve Ultimate-Guitar.com Take our survey!
×
Tabbed By : Xcrimson_ghostX
e-mail: skawful27@aim.com

Tuning: standard

Intro
G|----------|
D|----------|
A|-3-555555-|x4
E|----------|  

G|-----------------------------------------------------------------|
D|-5-555-555-555-55------------------------------------------------|
A|-----------------5-555-555-555-557-777-777-777-77--8---8---3---3-|x4
E|-----------------------------------------------------------------|

Verse
G|--7-7-7-7----------------------------|
D|-5-5-5-5--7-7-7-7-9-99876-10-1010987-|
A|---------5-5-5-5-7-7-----8--8--------|x1
E|-------------------------------------|

G|--7-7-7-7-----------------------------------------|
D|-5-5-5-5--7-7-7-7-9-99876-------------------------|
A|---------5-5-5-5-7-7-----88-8-8------88-8-8-------|x1
E|-------------------------------88-8-8------88-8-8-|

Chorus 1
G|-----------------------------------------------------------------|
D|-----------------------------------------------------------------|
A|-----------------5-555-555-555-557-777-777-777-77--8---8---3---3-|x1
E|-3-333-333-333-33------------------------------------------------|

G|-----------------------------------------------------------------|
D|-----------------------------------------------------------------|
A|-----------------5-555-555-555-558-888-888-888-888-888-888-888-8-|x1
E|-3-333-333-333-33------------------------------------------------|

Interlude
G|-----------------------------------------------------------------|
D|----------------------5-------5----------------------------------|
A|------3-------3--5--3----5--3------------7~~-------8---8---3---3-|x2
E|-3--5----3--5----------------------------------------------------|

Verse
G|--7-7-7-7----------------------------|
D|-5-5-5-5--7-7-7-7-9-99876-10-1010987-|
A|---------5-5-5-5-7-7-----8--8--------|x1
E|-------------------------------------|

G|--7-7-7-7-----------------------------------------|
D|-5-5-5-5--7-7-7-7-9-99876-------------------------|
A|---------5-5-5-5-7-7-----88-8-8------88-8-8-------|x1
E|-------------------------------88-8-8------88-8-8-|

Chorus 2
G|-----------------------------------------------------------------|
D|-----------------------------------------------------------------|
A|-----------------5-555-555-555-557-777-777-777-77--8---8---3---3-|x2
E|-3-333-333-333-33------------------------------------------------|

G|-----------------------------------------------------------------|
D|-----------------------------------------------------------------|
A|-----------------5-555-555-555-558-888-888-888-883-333-333-333-3-|x1
E|-3-333-333-333-33------------------------------------------------|

G|-----------------------------------------------------------------|
D|-----------------------------------------------------------------|
A|-----------------5-555-555-555-558-888-888-888-888-888-888-888-8-|x1
E|-3-333-333-333-33------------------------------------------------|

Bridge
G|----------------------------------|
D|----------------------------------|
A|--------3555555558888887533333333-|x3
E|-3333333--------------------------|

G|--------------------------------------------------|
D|--------------------------------------------------|
A|--------3555555558888888888888888333333335-3-5-3--|x1
E|-3333333------------------------------------------|

Chorus 2
G|-----------------------------------------------------------------|
D|-----------------------------------------------------------------|
A|-----------------5-555-555-555-557-777-777-777-77--8---8---3---3-|x2
E|-3-333-333-333-33------------------------------------------------|

G|-----------------------------------------------------------------|
D|-----------------------------------------------------------------|
A|-----------------5-555-555-555-558-888-888-888-883-333-333-333-3-|x1
E|-3-333-333-333-33------------------------------------------------|

G|--------------------------------------------------------------------------------|
D|--------------------------------------------------------------------------------|
A|-----------------5-555-555-555-558-888-888-888-888-888-888-888-888-888-888-753--|x1
E|-3-333-333-333-33-------------------------------------------------------------3-|

| /  slide up
| \  slide down
| h  hammer-on
| p  pull-off
| ~  vibrato
| +  harmonic
| x  Mute note
===============================================================================
Suggest correction
Give kudos to tab author, rate the tab!
1 2 3 4 5
comments
print report bad tab
guest
You may want to rate the tab now too:
select rating
Wanna post a correction for this tab? Suggest correction