Oops, an error
Loading. Please wait.

Fall Apart Tab

version 1
version 1

Whole song

Interactive

1,736 views 1 this week
5 commentsread comments
1 2 3 4 5
excellent!
x 3
add to favorites
launch autoscroll
font size
0
reset
how to read this tab
guitar tuner
Tab Pro tools
  • play this tab
  • loop segment
  • change instrument
  • show fretboard
  • metronome
Autoscroll
slow
fast
+/-
esc
set tempo
stop
Contributor
-------------------------------------------------------------------------------
                             Fall Apart - Less Than Jake
-------------------------------------------------------------------------------
Tabbed by: identityxcrysis
Email: xrunawayboyx@hotmail.com

Tuning: EADGBE (standard)

Intro - This is a  little strange..you can figure out the palm muting for yourself
e|--------------|
B|--------------|
G|----------7---|
D|----7-----7---|
A|-5--5--5--5---|
E|-5--5--5--5---|

Verse - 
e|------------------------------------------|
B|------------------------------------------|
G|------------------------------------------|
D|---------------------77777777-------------|
A|-----55555555555555--55555555-77777777----|
E|-2h3-33333333333333-----------55555555----|


e|-------------------------------------------|
B|-------------------------------------------|
G|---------------------77777777--------------|
D|-----55555555555555--77777777-77777777-----|
A|-----55555555555555--55555555-77777777-----|
E|-2h3-33333333333333-----------55555555-----|

Chorus
e|--------------------------------------|
B|--------------------------------------|
G|-4-4--4-7-------------7-x-7--7-x-7----|
D|-4-4--4-7-5-5--5-5-7--7-x-7--7-x-7----|
A|-2-2--2-5-5-5--5-5-7--5-x-5--5-x-5----|
E|----------3-3--3-3-5------------------|

e|--------------------------------------|
B|--------------------------------------|
G|-4-4--4-7-------------7-x-7--7-x-7----|
D|-4-4--4-7-5-5--5-5-7--7-x-7--7-x-7----|
A|-2-2--2-5-5-5--5-5-7--5-x-5--4-x-4----|
E|----------3-3--3-3-5------------------|

End of chorus
e|----------------------------|
B|----------------------------|
G|----------------------------|
D|-2-22-222--5-5-7-77---------|
A|-2-22-222--5-5-7-77---------|
E|-0-00-000--3-3-5-55---------|

Solo x 2
e|----------------------------------------------------|
B|----------------------------------------------------|
G|-9-7---7-7-9-11-9-7---7-7-7-12-11-9--7-9h7-9h7------|
D|-----9--------------9-------------------------------|
A|----------------------------------------------------|
E|----------------------------------------------------|

Bridge
e|---------------------------------------------|
B|---------------------------------------------|
G|-7777777777777777----------------------------|
D|-7777777777777777-77777777-55555555----------|
A|-5555555555555555-77777777-55555555----------|
E|------------------55555555-33333333----------|

In the outro chorus, play the solo once....
THE END!

| /  slide up
| \  slide down
| h  hammer-on
| p  pull-off
| ~  vibrato
| +  harmonic
| x  Mute note
===============================================================================
comments
We did not receive enough feedback on this tab! Please rate:
print report bad tab
1 2 3 4 5
5 comments total. Showing first comments.
0 reply
lessthanweezer7 wrote on July 3 2006, 12:58 pm

For some reason, I have a feeling this song is in Drop D...although this sounds kinda' right...

0 reply
identityxcrysis wrote on July 3 2006, 02:08 pm

I thought it was in drop D too, but couldn't figure it out. I'm still a little skeptic on the intro though. But I believe it's in standard. But if you can prove me wrong, let me know and I'll update it right away

0 reply
Letterbomb11 wrote on July 12 2006, 01:49 am

The countermelody during the solo would be appreciated.

I want to post or [tab]
guest
You may want to rate the tab now too:
select rating
Please do not post tabs as comments. Select "correction" instead!