Oops, an error
Loading. Please wait.

Fall Apart Tab

version 2
version 2

Whole song

Interactive

491 views 1 this week
no commentswrite comment
1 2 3 4 5
please rate
add to favorites
launch autoscroll
font size
0
reset
how to read this tab
guitar tuner
Autoscroll
slow
fast
+/-
esc
set tempo
stop
Help us to improve Ultimate-Guitar.com Take our survey!
×
Contributor
Difficulty
Tuning
SumFX 2,506
novice
D A D G B E
Band - Less Than Jake
Song - Fall Apart
Album - In With The Out Crowd
Tabbed By: SumFX (Tyler Freear)

Amazing Song And Very Easy To Play!

Tuning - Drop D


Intro
Figure Out Strumming, It's Not Hard.
|-----------------------|----------------------------|
|-----------------------|----------------------------|
|-----------------------|----------------------------|
|-0--4--5--7--7-7-7777--|-0--4--5--7--11-11-11111111-|
|-0--4--5--7--5-5-5555--|-0--4--5--7--9--9--9-9-9-9--|
|-0--4--5--7------------|-0--4--5--7-----------------|

Verse pt 1
|---------x2-----------------------|
|----------------------------------|
|----------------------------------|
|--4/5-555555555-00000000-77777777-|
|--4/5-555555555-00000000-77777777-|
|--4/5-555555555-00000000-77777777-|
       ......... ........ ........
Verse pt 2
|------------x2--------------------|
|----------------------------------|
|----------------------------------|
|--4/5-555555555-00000000-77777777-|
|--4/5-555555555-00000000-77777777-|
|--4/5-555555555-00000000-77777777-|

Chorus!
"It's Not That Hard, Just To Fall Apart!"
|------------------------|------------------------|
|------------------------|------------------------|
|-444-7------7-777-7-777-|-444-7------------------|
|-444-7-5555-7-777-7-777-|-444-7-5555-7-777-7-777-|
|-222-5-5555-5-555-5-555-|-222-5-5555-5-555-4-444-|
|-------5555-------------|-------5555-------------|

|------------------------|------------|
|------------------------|------------|
|-444-7------7-777-7-777-|-444-7------|
|-444-7-5555-7-777-7-777-|-444-7-5555-|
|-222-5-5555-5-555-5-555-|-222-5-5555-|
|-------5555-------------|-------5555-|

Post Chorus
|-------------------------------------|
|-------------------------------------|
|-------------------------------------|
|-222222-5555-7777--222222-7777-5555--|
|-222222-5555-7777--222222-7777-5555--|
|-222222-5555-7777--222222-7777-5555--|

Bridge
|-----------------------------------|
|-----------------------------------|
|-77777777777777--------------------|
|-77777777777777-77777777-55555555--|
|-55555555555555-77777777-55555555--|
|----------------77777777-55555555--|

Solo x 2
(Taken From identityxcrysis's Tab)
|----------------------------------------------------|
|----------------------------------------------------|
|-9-7---7-7-9-11-9-7---7-7-7-12-11-9--7-9h7-9h7------|
|-----9--------------9-------------------------------|
|----------------------------------------------------|
|----------------------------------------------------|


Structure

Intro
Verse
Chorus
Post Chorus
Intro
Verse
Chorus
Post Chorus
Solo (Bridge Plays Beneath Solo)
Bridge
Chorus w/Solo
Post Chorus
Intro

There You Go!

Rate and Comments Would Be Very Nice!!
comments
We did not receive enough feedback on this tab! Please rate:
print report bad tab
1 2 3 4 5
I want to post or [tab]
guest
You may want to rate the tab now too:
select rating
Please do not post tabs as comments. Select "correction" instead!