Oops, an error
Loading. Please wait.

Five State Drive Bass Tab

version 1
version 1

Whole song

Interactive

3,120 views 18 this week
no commentswrite comment
1 2 3 4 5
accurate
x 3
add to favorites
launch autoscroll
font size
0
reset
guitar tuner
Tab Pro tools
  • play this tab
  • loop segment
  • change instrument
  • show fretboard
  • metronome
×
Best way to learn
"Five State Drive"
Autoscroll
slow
fast
+/-
esc
set tempo
stop
Contributor
Difficulty
intermediate
Intro:
G--44--------44-------22-1----------------|
D-----1-2-4-----1-2-4------4-2-1--1-1-2-4-|
A-----------------------------------------|
E-----------------------------------------|

G--44--------44-------22-1----------------|
D-----1-2-4-----1-2-4------4-2-2222-1-----|
A-----------------------------------------|
E-----------------------------------------|

G--44--------44-------22-1----------------|
D-----1-2-4-----1-2-4------4-2-1--1-1-2-4-|
A-----------------------------------------|
E-----------------------------------------|

G--44--------44-------22-222-22--1--------|
D-----1-2-4-----1-2-4--------------4-2----|
A-----------------------------------------|
E-----------------------------------------|

Verse:

G---------------------------------------22--2-1--------|
D-----44-22-11----22-11--------44-22-11---------4-2-1--|
A--22----------00-------44--22-------------------------|
E------------------------------------------------------|

G-------------------------------------------------------|
D-----44-22-11----22-11--------44-22-11--4-4--4h6-4-2-1-|
A--22----------00-------44--22--------------------------|
E-------------------------------------------------------|

G------------------------------------------------------|
D-----44-22-11----22-11--------44-22-11-----11-22-44---|
A--22----------00-------44--22-----------22------------|
E------------------------------------------------------|

G------------------------------------------------------|
D-----44-22-11----22-11--------44-22-11-----11-22-44---|
A--22----------00-------44--22-----------22------------|
E------------------------------------------------------|

Chorus:

G-----------------22-11---------44-22-11-----11-22-44-------|
D-----44-22-11----------44----------------------------------|
A--22----------00------------22-----------44----------------|
E-----------------------------------------------------------| x2

Bridge:

G-----------------------------------------------------------------|
D-----------------------------2-222222-2-222222-------------------|
A--4-444444-0-000000-2-222222-------------------2-222222-2-222222-|
E-----------------------------------------------------------------|

G-------------------------------------------------|
D-------------------------------------------------|
A-4444--6-4--4-4-44-4444---4-44--2-22--0-00--2-22-|
E-------------------------------------------------| x3

G-------------------------------------------|
D----------------------------22-2222-22-2-2-|
A-4444--6-4---44-4444-44-4-4----------------|
E-------------------------------------------|


G-------------------------------|
D-------------2-1-4----------2~-|
A-2---0---4----------2---0------|
E-------------------------------|


Outro:

G-----------------22-11---------44-22-11-----11-22-44-------|
D-----44-22-11----------44----------------------------------|
A--22----------00------------22-----------44----------------|
E-----------------------------------------------------------|  x6

End:

G-----------|
D-----------|
A-2222-2-22-|
E-----------|
comments
We did not receive enough feedback on this tab! Please rate:
print report bad tab
1 2 3 4 5
I want to post or [tab]
guest
You may want to rate the tab now too:
select rating
Please do not post tabs as comments. Select "correction" instead!