Oops, an error
Loading. Please wait.

Five State Drive Tab

version 1
version 1

Whole song

Interactive

1,149 views 1 this week
no commentswrite comment
1 2 3 4 5
3 more votes to show rating
add to favorites
launch autoscroll
font size
0
reset
how to read this tab
guitar tuner
Autoscroll
slow
fast
+/-
esc
set tempo
stop
Help us to improve Ultimate-Guitar.com Take our survey!
×
Author
Difficulty
intermediate
INTRO:
upbeat ska rythm
  B5  E5  B5  E5  D#5       C#5 D#5 C#5 B5
e----------------------------------------|
B----------------------------------------|
G------9-------9---8---8--8-6--8--6--4---|   Play twice
D--9---9---9---9---8---8--8-6--8--6--4---|
A--9---7---9---7---6---6--6-4--6--4--2---|
E--7-------7-----------------------------|

VERSE:
upbeat ska rythm
  B5  C#5    E5  (A5)  B5
e---------------------------------|
B---------------------------------|
G------6--6---9-------------------|        Play 4 times
D--9---6--6---9---(7)---9---------|
A--9---4--4---7---(7)---9---------|
E--7--------------(5)---7---------|

CHORUS:
upbeat ska rythm
  B5  A5 C#5 E5  B5  A5  E5
e---------------------------------|
B---------------------------------|
G---------6---9-----------9-------|          Play twice
D--9---7--6---9---9---7---9-------|
A--9---7--4---7---9---7---7-------|
E--7---5----------7---5-----------|

INTRO X2
VERSE X4
CHORUS X2

BRIDGE PART 1:
slower, punk-ish rythm
  C#5 A5  B5  A5  E5  B5
e---------------------------------|
B---------------------------------|
G------------------9--------------|
D--11--7---9---7---9---9----------|
A--11--7---9---7---7---9----------|
E--9---5---7---5-------7----------|

BRIDGE PART 2:
same rythm
  C#5 E5  F5  C#5  E5
e--------------------------------|
B--------------------------------|
G--6---9--11---------------------|
D--6---9--11---11--14------------|
A--4---7--9----11--14------------|
E--------------9---12------------|

BRIDGE PART 3:
same rythm
  B5  E5  B5  E5  D#5 C#5 B5
e----------------------------------|
B----------------------------------|
G------9-------9---8---6---4-------|       Play three times
D--9---9--9*---9---8---6---4-------|
A--9---7--9*---7---6---4---2-------|
E--7------7*-----------------------|

...and, on the fourth, play:

BRIDGE PART 4:
same rythm
  B5  E5  B5  C#5 E5
e--------------------------------|
B--------------------------------|
G------9-------6---9-------------|
D--9---9--9*---6---9-------------|
A--9---7--9*---4---7-------------|
E--7------7*---------------------|

CHORUS X4
End on a B

You can play this song with ska chords
like EADGBe for a G, and EADGBe for an E
     xx5433              xxx232

that you would move up or down throughout the song,but it makes the song
quite tricky, especially the intro.

SONG STRUCTURE:
INTRO_X2
VERSE_X4
CHORUS_X2
INTRO_X2
VERSE_X4
CHORUS_X2
BRIDGE PART 1_X1
BRIDGE PART 2_X1
BRIDGE PART 3_X3
BRIDGE PART 4_X1
CHORUS_X4
Suggest correction
Give kudos to tab author, rate the tab!
1 2 3 4 5
comments
print report bad tab
guest
You may want to rate the tab now too:
select rating
Wanna post a correction for this tab? Suggest correction