Oops, an error
Loading. Please wait.

Freeze Frame Bass Tab

701 views 9 this week
no commentswrite comment
1 2 3 4 5
please rate
add to favorites
launch autoscroll
font size
0
reset
guitar tuner
Autoscroll
slow
fast
+/-
esc
set tempo
stop
Help us to improve Ultimate-Guitar.com Take our survey!
×
Author
Difficulty
intermediate
LESS THAN JAKE - FREEZE FRAME

INTRO

G|-------------------------------------|
D|-------------------------------------|
A|-5----3--3------5-/-15--3--3---------|
E|-----------3--3--------------3-3-3-3-|

G|-----------------------------------|
D|---4-5-7-5-4---4---2-3-5-----------|
A|-5-----------5---3-----------2-3-4-| 
E|-------------------------3-3-------|

G|-----------------------------------|
D|---4-5-7-5-4---4---2-3-5-----------|
A|-5-----------5---3-----------2-3-2-| 
E|-------------------------3-3-------|

VERSE

G|-----------------------------------|
D|---4-5-7-5-4---4---2-3-5-----------|
A|-5-----------5---3-----------2-3-4-| x2 
E|-------------------------3-3-------|

G|---------------------------------|
D|---4-5-7-7-5-4-----2-3-5---------|
A|-5-------------5-3---------0-2-3-|
E|-------------------------3-------|

G|---------------------------------|
D|---4-5-7-5-4---4---2-3-5---------|
A|-5-----------5---3---------------| 
E|-------------------------3-2-3-4-|

PRE CHORUS

G|---------------------------------------------------|
D|---------------------------------------------------|
A|---------------------------------------------------|
E|-5-5-5-5-5-5-5-3-3-3-3-3-3-3-5--5--5--5--5--5-/-17-|

Repeat verse and pre chorus

CHORUS

G|------------------------------|
D|----------------------------7-|
A|-5-5--5-5--5-5--5-5--3--------|
E|------------------------5-----|

Repeat verse, pre chorus and chorus

VERSE (Variation)

G|---------------------------------|
D|---4-5-7-5-4---4-----------------|
A|-5-----------5---3-3-3-3---2-3-4-|
E|-------------------------3-------|

G|-----------------------------------|
D|---4-5-7-5-4---4---2-3-5-----------|
A|-5-----------5---3-----------2-3-4-| 
E|-------------------------3-3-------|

G|---------77-5-4h5p4---------------------|
D|---4-5-7------------5---2-3-4-5-5-3-2---|
A|-5--------------------3---------------3-|
E|----------------------------------------|

G|---------------------------------|
D|---4-5-7-5-4---4---2-3-5---------|
A|-5-----------5---3---------------| 
E|-------------------------3-2-3-4-|

repeat pre chorus and chorus

INTRO (Variation)

G|----------------------------------|
D|----------------------------------|
A|-5----3--3------5----3--3---------|
E|-----------3--3-----------3-3-3-3-|

G|---------------------------------|
D|---4-5-7-5-4---4-----------------|
A|-5-----------5---3-3-3-3---2-3-4-|
E|-------------------------3-------|

G|---------7-7-5-4---5-4-2-4---------|
D|---4-5-7---------5---------5-4-2-4-|
A|-5---------------------------------|
E|-----------------------------------|

G|-------------------------------|
D|---4-5-4-7-5-4-5---2-3-5-------|
A|-5---------------3-------------|
E|-------------------------3-----|

END
Suggest correction
Give kudos to tab author, rate the tab!
1 2 3 4 5
comments
print report bad tab
guest
You may want to rate the tab now too:
select rating
Please do not post tabs as comments. Select "correction" instead!