Oops, an error
Loading. Please wait.

Gainesville Rock City Tab

version 1
version 1

Whole song

Interactive

5,632 views 18 this week
1 commentread comment
1 2 3 4 5
please rate
add to favorites
launch autoscroll
font size
0
reset
how to read this tab
guitar tuner
Autoscroll
slow
fast
+/-
esc
set tempo
stop
Help us to improve Ultimate-Guitar.com Take our survey!
×
Tabbed by: Ian


First tab

beginning
e|-------------------------------0-------0---------------------------------------------|
B|---------------------------------0-------0-------------------------------------------|
G|-------2---6--------repeat----------2------------------------------------------------|
D|---2---2---6---4------and------------------------------------------------------------|
A|---2---0---4---4-----then------------------------------------------------------------|
E|---0-----------2---------------------------------------------------------------------|

Pre-Verse?

e|------------------------------------------------------repeat-----------------------|
B|--------------------------------------------------------again----------------------|
G|-----------------------------------------------------------------------------------|
D|-------------------------6-7--6-7---repeat 3X------7-------------------------------|
A|----5-7---4-5----2-4------------------and-------7----------------------------------|
E|--0----0------0------0-0-----0-------then-------5----------------------------------|


e|-------------------------------------------------------------------------------------|
B|--------multiple---------------------------------------------------------------------|
G|----------times----------------------------------------------------------------------|
D|----2--------------------7-----------------------------------------------------------|
A|----2--------------------7-----------------------------------------------------------|
E|----0--------------------5-----------------------------------------------------------|
Verse 1

( natural harmonic = <>, the natural harmonic makes it easier to get the sound then 
use a volume pedal with the harmonic.)


e|---------<12>------------------<12>-------|
B|------------------------------------------|
G|------------------------------------------|
D|-2--------------7----2--------------------|
A|-2--------------7----2--------------------|
E|-0--------------5----0--------------------|

Chorus

e|---------------------------------------------------------------------------------|
B|---------------------------------------------------------------------------------|
G|---------4----9----6-------------------------------------------------------------|
D|----4----4----9----6-------------------------------------------------------------|
A|----4----2----7----4-------------------------------------------------------------|
E|----2----------------------------------------------------------------------------|

The constant I wouldn't have it any other way part

e|--------------------------------------------------------------------------------|
B|--------------------------------------------------------------------------------|
G|--------4---2-------------------------------------------------------------------|
D|----2---4---2-------------------------------------------------------------------|
A|----2---2---0-------------------------------------------------------------------|
E|----0---------------------------------------------------------------------------|

Verse 2

e|----------<12>-------------------------------------------------------------------|
B|--------------------<12>---------------------------------------------------------|
G|---------------------------------------------------------------------------------|
D|----2----------------------------------------------------------------------------|
A|----2----------<7>---------------------------------------------------------------|
E|----0----------------------------------------------------------------------------|


Those are all the parts figure out rhythms and stuff on your own.
Suggest correction
Give kudos to tab author, rate the tab!
1 2 3 4 5
comments
print report bad tab
1 comment total.
0 reply
Alvin the Great 30 wrote on April 22 2013, 08:36 am

The Intro chords are actually as follows:

e|----0---------4---------0-----------0----0--5--4-------0------0
B|----0---------5-------0-------------0----0--5--5---------0-----
G|----1---------6------------3--------1----6--6--6------------3--
D|----2----7----6----4----------------2----7-----6----4----------
A|----2----7----4----4----------------2----7-----4----4----------
E|----0----5---------2----------------0----5----------2----------

and I do believe the chord at the end of the pre-verse riff is the Amaj(add 9):

e|----0--
B|----0--
G|----6--
D|----7--
A|----7--
E|----5--


And if we want to be completely right on the Choruses, it should say that 1st Chorus repeats what you wrote 2x and then:

e|----0------0--
B|----0------0--
G|----4------2--
D|----4------2--
A|----2------0--
E|-------


Of course, 2nd Chorus repeats 3x and then ^.

guest
You may want to rate the tab now too:
select rating
Wanna post a correction for this tab? Suggest correction