Oops, an error
Loading. Please wait.

Gainsville Rock City Tab

version 4
version 4

Whole song

Interactive

178 views 1 this week
1 commentread comment
1 2 3 4 5
not so good
x 3
add to favorites
launch autoscroll
font size
0
reset
how to read this tab
guitar tuner
Tab Pro tools
  • play this tab
  • loop segment
  • change instrument
  • show fretboard
  • metronome
Autoscroll
slow
fast
+/-
esc
set tempo
stop
-------------------------------------------------------------------------------
                   Gainesville Rock City - Less Than Jake
------------------------------------------------------------------------------- 
                             Borders And Bourdaries

                                Tabbed By Yan C.
                               Yan440@hotmail.com

This version is perfect.

1 - Intro
2 - Solo
3 - Brass Thing ( same as guitar solo ) 2x
4 - Verse
5 - Chorus
6 - brass thing 1x
7 - Verse 2
8 - Chorus 2
9 - Intro ( with constant Struming )
10 - Solo
11 - The End

-----------------------------------Intro--------------------------------------

[--------2x--------]

e|--x---x---x---x------------------------------------------------------------|
B|--x---x---x---x------------------------------------------------------------|
G|--x---x---6---x------------------------------------------------------------|
D|--2---7---6---4------------------------------------------------------------|
A|--2---7---4---4------------------------------------------------------------|
E|--0---5---x---2------------------------------------------------------------|


----------------------------------Solo----------------------------------------


[------------------------------------2x--------------------------------------]

[---------------3x------------------]----------------[---Wait---]------------]
 
e|----------------------------------|-----------------x----------x-----------|
B|----------------------------------|-----------------x----------x-----------|
G|----------------------------------|-----------------2----------x-----------|
D|-----------------------6h7---6h7--|-----------------2----------2-----------|
A|----5h7---4h5---2h4---------------|----5h7---4h5----0----------2-----------|
E|--x-----x-----x-----xx-----x------|--x-----x-----x--x----------0-----------|


--------------------Brass Thing ( same as guitar solo )-----------------------


e|-------------------xxxxxxxxxxxxxxxxxxxxxxxxxxxxxxxx--xxxx--x---------------|
B|-------------------xxxxxxxxxxxxxxxxxxxxxxxxxxxxxxxx--xxxx--x---------------|
G|-------------------xxxxxxxxxxxxxxxxxxxxxxxxxxxxxxxx--xxxx--x---------------|
D|-------------------22222222222222222222222222222222--7777--2---------------|
A|-------------------22222222222222222222222222222222--7777--2---------------|
E|-------------------00000000000000000000000000000000--5555--0---------------|


---------------------------------Verse----------------------------------------


e|----x--------x------x------------------------------------------------------|
B|----x--------x------x------------------------------------------------------|
G|----x--------x------x------------------------------------------------------|
D|----7--------2------7------------------------------------------------------|
A|----7--------2------7------------------------------------------------------|
E|----5--------0------5------------------------------------------------------|


---------------------------------Chorus---------------------------------------

[--------2x--------][----1x----]
e|---x---x---x---x----x---x---x----------------------------------------------|
B|---x---x---x---x----x---x---x----------------------------------------------|
G|---x---4---9---6----4---x---x----------------------------------------------|
D|---4---4---9---6----4---7---2----------------------------------------------|
A|---4---2---7---4----2---7---2----------------------------------------------|
E|---2---x---x---x----x---5---0----------------------------------------------|


--------------------------------Verse 2---------------------------------------

[-----------3----------]
e|------12---------10--------x-----------------------------------------------|
B|-----------10--------------x-----------------------------------------------|
G|---------------------------x-----------------------------------------------|
D|---------------------------7-----------------------------------------------|
A|---------------------------7-----------------------------------------------|
E|---------------------------5-----------------------------------------------|


-------------------------------Chorus 2---------------------------------------

[--------3x--------][----4x----]
e|---x---x---x---x----x---x---x----------------------------------------------|
B|---x---x---x---x----x---x---x----------------------------------------------|
G|---x---4---9---6----4---x---x----------------------------------------------|
D|---4---4---9---6----4---7---2----------------------------------------------|
A|---4---2---7---4----2---7---2----------------------------------------------|
E|---2---x---x---x----x---5---0----------------------------------------------|


---------------------------------The End--------------------------------------


[--------2x--------]----[Bass]----[------Play-----]

e|--x---x---x---x-------------------------------x----------------------------|
B|--x---x---x---x-------------------------------x----------------------------|
G|--x---x---6---x-------------------------------9----------------------------|
D|--2---7---6---4------------------2-0-0--2-0-0-9----------------------------|
A|--2---7---4---4---------------------4-2----4--7----------------------------|
E|--0---5---x---2-------------------------------x----------------------------|

===============================================================================
comments
We did not receive enough feedback on this tab! Please rate:
print report bad tab
1 2 3 4 5
1 comment total.
0 reply
koolmosher wrote on February 19 2003, 12:00 am

What the **** is with all the X's on all the power chords? We dont need those next time!

I want to post or [tab]
guest
You may want to rate the tab now too:
select rating
Please do not post tabs as comments. Select "correction" instead!