Oops, an error
Loading. Please wait.

Gainsville Rock City Tab

version 5
version 5

Whole song

Interactive

218 views 1 this week
no commentswrite comment
1 2 3 4 5
2 more votes to show rating
add to favorites
launch autoscroll
font size
0
reset
how to read this tab
guitar tuner
Autoscroll
slow
fast
+/-
esc
set tempo
stop
Help us to improve Ultimate-Guitar.com Take our survey!
×
Author
-------------------------------------------------------------------------------
                             Gainsville Rock City - Less Than Jake
-------------------------------------------------------------------------------
Tabbed by: The_Main_Man
Email:igotjimmies@hotmail.com

Tuning:standard

Intro

Guitar 1
e|---------------------------------------------------------------------------|
B|---------------------------------------------------------------------------|
G|-1-2-4-2-2-2-2--1------1--2-1-----4---4-4-4-2-1----------------------------|
D|-------------------4-2--------4-2------------------------------------------|
A|---------------------------------------------------------------------------|
E|---------------------------------------------------------------------------|

e|-----------------------------------------------------------------------------|
B|-----------------------------------------------------------------------------|
G|-1-2-4-2-2-2-2--1------1--2-1--------1---------------------------------------|
D|-------------------4-2--------4-2-------4-Let last note ring-----------------|
A|-----------------------------------4-----------------------------------------|
E|-----------------------------------------------------------------------------|


Guiatr 2
e|-----------------------------------------------------------------------------|
B|-----------------------------------------------------------------------------|
G|--------2--------------------------------------------------------------------|
D|-2------2---------6--------------------X 2-----------------------------------|
A|-2------0---------4------------4---------------------------------------------|
E|-0-----------------------------2---------------------------------------------|

Intro 2

Guiatr 1,  X 4

e|-----------------------------------------------------------------------------|
B|-----------------------------------------------------------------------------|
G|-----------------------------------------------------------------------------|
D|---------------6-7-6-7------X 4----------------------------------------------|
A|5-7--4-5--2-4----------------------------------------------------------------|
E|-----------------------------------------------------------------------------|

Guiatr 2,  X 2
e|-----------------------------------------------------------------------------|
B|-----------------------------------------------------------------------------|
G|------------------------2----------------------------------------------------|
D|------------------------2---2------X 2---------------------------------------|
A|------------------------0---2------------------------------------------------|
E|----------------------------0------------------------------------------------|

Guiatr 2 (second part),  X 2
e|-----------------------------------------------------------------------------|
B|-----------------------------------------------------------------------------|
G|--2--------------------------------------------------------------------------|
D|--2--2-----------------------------------------------------------------------|
A|--0--2--X16------------------------------------------------------------------|
E|-----0-----------------------------------------------------------------------|

Verse

Guiatr 1- get feedback (hold the guitar next to the amp without muting any strings)

Guiatr 2,  X 2
e|---------------------------------------------------------------------------|
B|---------------------------------------------------------------------------|
G|---2-----------------------------------------------------------------------|
D|---2--2--------------------------------------------------------------------|
A|---0--2--------------------------------------------------------------------|
E|------0--------------------------------------------------------------------|

Chorus- both guitars (figure out strumming)

e|------------------------------------------------------------------------------|
B|------------------------------------------------------------------------------|
G|--------------------------------(----2----------------------------------------|
D|-----4----9---6-------4---9--6--(4--2--2-) last part of chorus----------------|
A|-4---2----7---4----4--2---7--4--(2--0--2-)------------------------------------|
E|-2-----------------2-------------------0-)------------------------------------|

Back to intro 2

Song Structure

Intro 1
Intro 2
Verse
Chorus
Intro 2
Verse
Chorus X 2

Intro 1
Intro 2
Intro 2 (chords)
~*END*~
Suggest correction
Give kudos to tab author, rate the tab!
1 2 3 4 5
comments
print report bad tab
guest
You may want to rate the tab now too:
select rating
Wanna post a correction for this tab? Suggest correction