Oops, an error
Loading. Please wait.

Hopeless Case tab

5,234 views 3 this week
1 commentread comment
1 2 3 4 5
x 3
add to favorites
×
Save as Personal and add changes to this tab that will be seen only by you. Learn more ›
×
You can save this tab as Personal to edit and correct it or add notes. All changes will be seen only by you. Learn more »
launch autoscroll
font size
0
reset
how to read this tab
guitar tuner
edit
Autoscroll
slow
fast
+/-
esc
set tempo
stop
Great song off the new album!

-------------------------------------------------------------------------------
                            Hopeless Case - Less Than Jake
-------------------------------------------------------------------------------
Tabbed by:Identityxcrysis
Email:masteroftheonering@hotmail.com

Tuning: EADGBE (standard)

Intro/Verse-
e|-----------------------|
B|-----------------------|
G|--4---5---7---4--------|
D|----5---5---5---5------|
A|-----------------------|
E|-----------------------|
  P.M.---------------|
There's sometimes a variation that goes like this

e|------------------------------|
B|--------------5---------------|
G|--4---5---4-------5---4---5---|
D|----5---5---5---5---5---5---5-|
A|------------------------------|
E|------------------------------|

Eventually during the verse you hear
e|---------------------------------------------------------------------------|
B|---------------------------------------------------------------------------|
G|---------------------------------------------------------------------------|
D|-----------------------------------22222222222222222222-55555555555555555--|
A|-5555555555555555-2222222222222222-00000000000000000000-33333333333333333--|
E|-3333333333333333-0000000000000000-----------------------------------------|
  P.M.----------------------------------------------------------------------|

And than towards the end of the chorus you'll hear
B|-8-|
played a few times


Chorus-
Three guitars in the chorus, acoustic and an electric playing this
e|---------------------------------------------------------------------------|
B|---------------------------------------------------------------------------|
G|-------------------------------------2-22-222-2-22-222-5-55-555-5-55-555---|
D|-5-55-555-5-55-555-2-22-222-2-22-222-2-22-222-2-22-222-5-55-555-5-55-555---|
A|-5-55-555-5-55-555-2-22-222-2-22-222-0-00-000-0-00-000-3-33-333-3-33-333---|
E|-3-33-333-3-33-333-0-00-000-0-00-000---------------------------------------|

Than the third guitar thats really low switching between these two chords
e|-7777777777777777-88888888888888888-----|
B|-8888888888888888-88888888888888888-----|
G|----------------------------------------|
D|----------------------------------------|
A|----------------------------------------|
E|----------------------------------------|

Bridge!-x2
e|-----------------------------|
B|-----------------------------|
G|-------------------------5---|
D|-2----2-2-2-5----5-5-----5---|
A|-2-22-2-2-2-5-55-5-5-----3---|
E|-0-00-0-0-0-3-33-3-3---------|
    P.M-       P.M-

End with-
e|-------------------|
B|-------------------|
G|-5-5-5-5-----------|
D|-5-5-5-5----5------|
A|-3-3-3-3----5------|
E|------------3------|

That would be all! Yup,
E-mail me with corrections
===============================================================================

            
            
Suggest correction
Creating personal tab
Creating personal tab
You can edit any tab online and save it as your Personal.

You can edit, replace or remove any tab part or add personal notes – all changes will be seen only by you.

Personal tabs can be accessed anytime from any device, even offline.
Learn more »
Give kudos to tab author, rate the tab!
1 2 3 4 5
comments
print report bad tab
1 comment total.
0 reply
LesThanPaul 338 Jan 26, 2012 05:19 PM

I think the intro riff is actually like this:
e|-------------------|
B|-------------------|
G|--4-0-5-0-7-0-5-0--|
D|-------------------|
A|-------------------|
E|-------------------|

The variation riff should go like this:
e|-----------------------------------|
B|-----------------------------------|
G|--4-0-5-0-7-0-5-0-9-0-7-0-5-0-7-0--|
D|-----------------------------------|
A|-----------------------------------|
E|-----------------------------------|

guest
You may want to rate the tab now too:
select rating
Wanna post a correction for this tab? Suggest correction