Oops, an error
Loading. Please wait.

Landmines And Landslides bass

1,329 views 3 this week
no commentswrite comment
1 2 3 4 5
x 3
add to favorites
×
Save as Personal and add changes to this tab that will be seen only by you. Learn more ›
×
You can save this tab as Personal to edit and correct it or add notes. All changes will be seen only by you. Learn more »
launch autoscroll
font size
0
reset
guitar tuner
edit
Autoscroll
slow
fast
+/-
esc
set tempo
stop
-------------------------------------------------------------------------------
		     Landmines And Landslides - Less Than Jake
-------------------------------------------------------------------------------

Tabbed By : identityxcrysis
e-mail: xrunawayboyx@hotmail.com

Tuning: EADG (Standard)

Intro
G|---------------------------------------------|
D|---------------------------------------------|
A|-33333333-55555555---------------------------|
E|-------------------55555555-11111111---------|

Verse
G|----------------------------------------------------|
D|----------------33333333332200-----------5533-------|
A|-333--3-----------------------33---223355----6655---|
E|--------555--5-------------------33-----------------|

G|-------------------------------------------------------------------------|
D|-----------------------------------33333333332200-----------5533---------|
A|-3333333333333333--------------------------------33---223355----6655-----|
E|------------------5555555555555555------------------33-------------------|

Prechorus
G|--------------------------------|
D|--------------------------------|
A|--------------------------------|
E|-5--33--1--55-33-11111111-------|

Chorus
G|-------------------------------2-32---|
D|-----------------------------33-3--3--|
A|--33333333-55555555-00000000----------|
E|--------------------------------------|

G|-------------------------------23355--|
D|-----------------------------33-------|
A|--33333333-55555555-00000000----------|
E|--------------------------------------|

Chorus Variation 1-Played on Second chorus
G|------------------------------2-32---|
D|----------------------------33-3--3--|
A|-33333333-55555555---445577----------|
E|-------------------55----------------|

G|------------------------------223355-|
D|----------------------------33-------|
A|-33333333-55555555---445577----------|
E|-------------------55----------------|

Chorus Variation2 -Played sometimes at the end
G|------------------------------2-32---|
D|---223355-------------------33-3--3--|
A|-33-------55775544---445577----------|
E|-------------------55----------------|

G|------------------------------223355-|
D|---223355-------------------33-------|
A|-33-------55775544---445577----------|
E|-------------------55----------------|

Bridge                    End of bridge
G|--------------------|-------------------------------------------------------|
D|--------------------|----------5544-------------3322-------------3322-------|
A|--------------------|----445577----7755---223355----5533---223355-----------|
E|-555-5-333-3-11111--|--55---------------33---------------33-----------------|

Solo (Play Chorus)

That's all there is
This song is alot of fun to play because there are alot of runs
===============================================================================
Suggest correction
Creating personal tab
Creating personal tab
You can edit any tab online and save it as your Personal.

You can edit, replace or remove any tab part or add personal notes – all changes will be seen only by you.

Personal tabs can be accessed anytime from any device, even offline.
Learn more »
Give kudos to tab author, rate the tab!
1 2 3 4 5
comments
print report bad tab
guest
You may want to rate the tab now too:
select rating
Wanna post a correction for this tab? Suggest correction