Oops, an error
Loading. Please wait.

Look What Happened bass

version 2
version 2

Whole song

Interactive

5,906 views 9 this week
1 commentread comment
1 2 3 4 5
x 4
add to favorites
×
Save as Personal and add changes to this tab that will be seen only by you. Learn more ›
×
You can save this tab as Personal to edit and correct it or add notes. All changes will be seen only by you. Learn more »
launch autoscroll
font size
0
reset
guitar tuner
edit
Autoscroll
slow
fast
+/-
esc
set tempo
stop
Author
Difficulty
song:look what happened
band:less than jake
album:anthem


INTRO:


G---9------9---9----9-----9----9------|
D ------6H7-66--------6H7---66--------|
A77---9----------99--------------7----|
E-------------------------------------|

VERSE:
G----------------------------------------|
D----------------------------------------|
A-777777---------------------------------|
E--------77777-55555-0000000-77777-55555-|

CHORUS:
G--------------------------|
D--------------------------|
A-7777---------------------|
E-----7-5-5555-2222-55-777-|


VERSE AGAIN AND THEN... INTRO THEN CHORUS......THEN


THE BRIDGE/ENDING:
G-------------------------------------------|
D-------------------------------------------|
A-7-7-7-7-------7-7-7-7---------------------|
E--------7-7-7-7-------7-7-5-5--------------|

BRIDGE CONTINUED:
G--------------------------------------------|
D--------------------------------------------|
A--------2200202022222-------22222-00000-----|
E-00-0-0---------------00-0-0------------0---|

AND THATS IT ENJOY!

            
            
Suggest correction
Creating personal tab
Creating personal tab
You can edit any tab online and save it as your Personal.

You can edit, replace or remove any tab part or add personal notes – all changes will be seen only by you.

Personal tabs can be accessed anytime from any device, even offline.
Learn more »
comments
print report bad tab
1 comment total.
0 reply
PUNKfromNORWAY 113 Jan 08, 2008 10:40 AM

good tab!, but 4 stars because in the verse there are more notes/fills not just 777777, if you know what I mean, but
good tab

guest
You may want to rate the tab now too:
select rating
Wanna post a correction for this tab? Suggest correction