Oops, an error
Loading. Please wait.

Mostly Memories bass

674 views 1 this week
no commentswrite comment
1 2 3 4 5
1 last vote to show rating
add to favorites
×
Save as Personal and add changes to this tab that will be seen only by you. Learn more ›
×
You can save this tab as Personal to edit and correct it or add notes. All changes will be seen only by you. Learn more »
launch autoscroll
font size
0
reset
guitar tuner
edit
Autoscroll
slow
fast
+/-
esc
set tempo
stop
-------------------------------------------------------------------------------
			     Mostly Memories - Less Than Jake
-------------------------------------------------------------------------------

Tabbed By : identityxcrysis
e-mail: xrunawayboyx@hotmail.com

Tuning: EADG (Standard)

Intro
G|---------------------------------------------------------------------------|
D|---------------------------------------------------------------------------|
A|--5555555555555555------------------------------------3333333333333333-----|
E|-------------------3333333333333333-0000000000000000-----------------------|

G|--------------------------------------------------------------------------|
D|-----7---754---------5-55-5553--------------------------------------------|
A|-5555-555---5------------------5------------------3333333333333333--------|
E|--------------3333333------------0000000000000000-------------------------|

Verse
G|--------------------------------------------------------------------------|
D|------------------------------------------------5-55-555-222-222----------|
A|-5-55-555-------------------3-33--333--5-55-555------------------3333333--|
E|----------3-33-333-0-00-000-----------------------------------------------|

Pre-chorus
G|-----------------------|
D|-----------------------|
A|-0-0-0000-00--0000-3---|
E|---------------------3-|

Chorus
G|------------------------------------------------------------------|
D|------------------------------------------------------------------|
A|-5-5-5555-55-5555-4-4-4444-44-4444-2-2-2222-22-2222-33-3----------|
E|---------------------------------------------------------33-3-----|

G|-----------------------------------------------------------|
D|--------7---7-----------7----7----------4-2-0--------------|
A|-5-5-555--55--55-4-4-444--44---44-2-222------2-2-33-3------|
E|------------------------------------------------------33---|

Bridge
G|---------------------------------------------------------------|
D|--------------------------------------------------555544-7777--|
A|--22-22-2---------55-55-5---------22-22-2----------------------|
E|----------33-33-3---------55-55-5---------33-33-3--------------|

That's all there is to it
It's little hard to get the rhythm of the extra notes, just listen, or BS your way 
it, shouldn't be too hard!
===============================================================================
Suggest correction
Creating personal tab
Creating personal tab
You can edit any tab online and save it as your Personal.

You can edit, replace or remove any tab part or add personal notes – all changes will be seen only by you.

Personal tabs can be accessed anytime from any device, even offline.
Learn more »
Give kudos to tab author, rate the tab!
1 2 3 4 5
comments
print report bad tab
guest
You may want to rate the tab now too:
select rating
Wanna post a correction for this tab? Suggest correction