Oops, an error
Loading. Please wait.

Rest Of My Life tab

version 3
version 3

Whole song

Interactive

10,731 views 36 this week
no commentswrite comment
1 2 3 4 5
x 6
add to favorites
×
Save as Personal and add changes to this tab that will be seen only by you. Learn more ›
×
You can save this tab as Personal to edit and correct it or add notes. All changes will be seen only by you. Learn more »
launch autoscroll
font size
0
reset
how to read this tab
guitar tuner
edit
Autoscroll
slow
fast
+/-
esc
set tempo
stop
Author
Difficulty
Less Thank Jake - Rest of My Life

Album: In with the Out Crowd
Tuning:  Down one half step
         Eb-Ab-Gb-Db-Ab-eb

I tabbed this because something wasn't quite right about the other tabs
for it.  So I took the two tabs listed and tweaked them.  The biggest change
was the change tuning.  By lowering the tuning it allowed the same chords to
be played open making them have a little different sound which I think is more
like the record.


intro
E||----------------------------------------------------|
B||----------------------------------------------------|
G||----------------------------------------------------|
D||-2---2-----------2---2------------------------------|
A||---4---4-2-----2---4---4----------2-4-5-4-2-----5-4-|
E||------------------------------5-5-----------5-0-----|

E||----------------------------------------------------|
B||----------------------------------------------------|
G||----------------------------------------------------|
D||-2---2-----------2---2------------------------------|
A||---4---4-2-----2---4---4----------2-4-5-4-2-----2---|
E||------------------------------5-5-----------5-0---5-|

Verse:
    A  E F#m D
E||-0--0--2--2-|
B||-2--0--2--3-|
G||-2--1--2--2-|
D||-2--2--4--0-|
A||-0--2--4--x-|
E||-x--0--2--x-|


Chorus:
I tend to strum using the full barre chords for this, but
it sounds fine using the power chords.
   A5 E5 F#5 D5
E||------------|
B||------------|
G||----9--11-7-|
D||-7--9--11-7-|
A||-7--7--9--5-|
E||-5----------|


Bridge
E||-------------------------|
B||-------------------------|
G||--11-12-11-12-11-9-12----|
D||--11-12-11-12-11-9-12-12-|
A||--9--10-9--10-9--7-10-12-|
E||----------------------10-|


E||----------------------------------------------------|
B||----------------------------------------------------|
G||----------------------------------------------------|
D||-2---2-----------2---2------------------------------|
A||---4---4-2-----2---4---4----------2-4-5-4-2-----2---|
E||------------------------------5-5-----------5-0---5-|


E||-----------------------|
B||-----------------------|
G||-----------------------|
D||-----------------------|
A||-----2-4-5-4-2-----2---|
E||-5-5-----------5-0---5-|


Outro
E||-------------------------|
B||-------------------------|
G||-------------------------|
D||-2---2-----------2---2---|
A||---4---4-2-----2---4---4-|
E||-------------------------|

Here's the order and amount of times each thing is played.
Intro  x1
Verse  x4
Chorus x2
Verse  x4
Chorus x2
Bridge x1
Chorus x2
Outro  x2
Suggest correction
Creating personal tab
Creating personal tab
You can edit any tab online and save it as your Personal.

You can edit, replace or remove any tab part or add personal notes – all changes will be seen only by you.

Personal tabs can be accessed anytime from any device, even offline.
Learn more »
comments
print report bad tab
guest
You may want to rate the tab now too:
select rating
Wanna post a correction for this tab? Suggest correction