Oops, an error
Loading. Please wait.

The Sick Sick 68 Billion tab

by Letlive
208 views 3 this week
no commentswrite comment
1 2 3 4 5
3 more votes to show rating
add to favorites
×
Save as Personal and add changes to this tab that will be seen only by you. Learn more ›
×
You can save this tab as Personal to edit and correct it or add notes. All changes will be seen only by you. Learn more »
launch autoscroll
font size
0
reset
how to read this tab
guitar tuner
edit
Autoscroll
slow
fast
+/-
esc
set tempo
stop
*(AH) means artificial harmonic* 
[Verse 1]
  I met a man at church on Saturday. He said I’m here because I’m sick
D#|------------------------------------------------------------------------------|
A#|-------6666666666-------------------------6666666666---15(AH)-----------------|
F#|-------7777777777-------------------------7777777777--------------------------|
C#|------------------------------------------------------------------------------|
G#|0-8-5------------------------------0-8-5--------------------------------------|
C#|0----------------------------------0------------------------------------------|

and after sick I’ll be dead, and once I’m dead I’ll be saved
D#|------------------------------------------------------------------------------|
A#|-----------------------------------------Play This Part Four Times------------|
F#|10-10-10-10-10--10-10-10-10---------------------------------------------------|
C#|------------------------------------------------------------------------------|
G#|8--8--8--8--8---8--8--8--8----------------------------------------------------|
C#|------------------------------------------------------------------------------|

  I played an atheist on judgment day. If we’re all here because we are picked
D#|------------------------------------------------------------------------------|
A#|-------6666666666---------------------------6666666666------------------------|
F#|-------7777777777---------------------------7777777777------------------------|
C#|------------------------------------------------------------------------------|
G#|0-8-5--------------------------------0-8-5------------------------------------|
C#|0------------------------------------0----------------------------------------|

  well I was picked with no faith, so once I’m saved don’t mean shit
D#|------------------------------------------------------------------------------|
A#|-----------------------------------------Play This Part Four Times------------|
F#|10-10-10-10-10--10-10-10-10---------------------------------------------------|
C#|------------------------------------------------------------------------------|
G#|8--8--8--8--8---8--8--8--8----------------------------------------------------|
C#|------------------------------------------------------------------------------|

  I can tell we found the rhythm I can tell we found the rhythm, 
  and oh,oh,oh,we can obey
D#|------------------------------------------------------------------------------|
A#|-----10-10-10-10-10-10-10-10-10-10-------Play This Part Four Times------------|
F#|-----10-10-10-10-10-10-10-10-10-10--------------------------------------------|
C#|------------------------------------------------------------------------------|
G#|0-8-5-------------------------------------------------------------------------|
C#|0-----------------------------------------------------------------------------|

  but if they don’t pray, then they don’t mean a thing
D#|------------------------------------------------------------------------------|
A#|-----------------------------------------Play This Part Four Times------------|
F#|10-10-10-10-10--10-10-10-10---------------------------------------------------|
C#|------------------------------------------------------------------------------|
G#|8--8--8--8--8---8--8--8--8----------------------------------------------------|
C#|------------------------------------------------------------------------------|
   I got my fathers stitch on mother’s day        it does appear life’s a bitch
D#|------------------------------------------------------------------------------|
A#|-------6666666666-------------------------------------------------------------|
F#|-------7777777777-------------------------------------------------------------|
C#|------------------------------------------------------------------------------|
G#|0-8-5-------------------------------------------0-8-5-------------------------|
C#|0-----------------------------------------------0-----------------------------|

but I’m a dick just the same, because we’re the same don’t mean shit
D#|------------------------------------------------------------------------------|
A#|-----------------------------------------Play This Part Four Times------------|
F#|10-10-10-10-10--10-10-10-10---------------------------------------------------|
C#|------------------------------------------------------------------------------|
G#|8--8--8--8--8---8--8--8--8----------------------------------------------------|
C#|------------------------------------------------------------------------------|

  we can’t all forget              how to be son of man
D#|------------------------------------------------------------------------------|
A#|------6--6--6--6--6--------------------6--6--6--6-6-6-------------------------|
F#|------7--7--7--7--7--------------------7--7--7--7-7-7-------------------------|
C#|------------------------------------------------------------------------------|
G#|0-8-5----------------------------0-8-5----------------------------------------|
C#|0--------------------------------0--------------------------------------------|

D#|------------------------------------------------------------------------------|
A#|------------------------------------------------------------------------------|
F#|------------------------------------------------------------------------------|
C#|------------------------------------------------------------------------------|
G#|------------------------------------------------------------------------------|
C#|------------------------------------------------------------------------------|


[Chorus]
I don't know how many times the chords are played. I matched it the best I could. 
The chords play along with the words, so just sound and match it the best you can

   afraid that the wait has only  given away this opportunity
D#|------------------------------------------------------------------------------|
A#|------------------------------------------------------------------------------|
F#|10-10-10-10-10--10-10-10-10-----10-10-10-10-10-10/12--------------------------|
C#|------------------------------------------------------------------------------|
G#|8--8--8--8--8---8--8--8--8------8--8--8--8--8--8-/10--------------------------|
C#|------------------------------------------------------------------------------|
  
  lucky for me, the sun it sets and it sets on and on again
D#|------------------------------------------------------------------------------|
A#|------------------------------------------------------------------------------|
F#|12-12-12-12-12--12-12-12-12-12--12-12-12-12-12--12-12-12-12-12--12-12-12-12-12|
C#|14-14-14-14-14--14-14-14-14-14--14-14-14-14-14--14-14-14-14-14--14-14-14-14-14|
G#|10-10-10-10-10--10-10-10-10-10--10-10-10-10-10--10-10-10-10-10--10-10-10-10-10|
C#|10-10-10-10-10--10-10-10-10-10--10-10-10-10-10--10-10-10-10-10--10-10-10-10-10|

[Break]
*play with the words**Mute after each open note*
   We all can't be                      son of man, we,
D#|------------------------------------------------------------------------------|
A#|------------------------------------------------------------------------------|
F#|------------------------------------------------------------------------------|
C#|------------------------------------------------------------------------------|
G#|------------------------------------------------------------------------------|
C#|0--0--0--0-------x-x-x-x-x-x-x------0--0--0--0--------------0-0-0-0-0-0-0-----|
                   |------PM-----|                             |-----PM-----|     
  
   We are the son of man                 We are the man of son
D#|------------------------------------------------------------------------------|
A#|------------------------------------------------------------------------------|
F#|------------------------------------------------------------------------------|
C#|------------------------------------------------------------------------------|
G#|------------------------------------------------------------------------------|
C#|0--0--0--0--0--0-----x-x-x-x-x-x-x------0--0--0--0--0--0--------0-0-0-0-0-0-0-|
                       |------PM-----|                            |-----PM-----| 
[Bridge]
  They learn the sea,  for they will swim               
D#|------------------------------------------------------------------------------|
A#|--------------------13--------------------------------------------------------|
F#|10------------------12--------------------------------------------------------|
C#|--------------------10--------------------------------------------------------|
G#|8-------------------10--------------------------------------------------------|
C#|------------------------------------------------------------------------------|    

I will learn the sea tonight, I will learn, I will learn
D#|------------------------------------------------------------------------------|
A#|------------------------------------------------------------------------------|
F#|------------------------------------------------------------------------------|
C#|------------------------------------------------------------------------------|
G#|------------------------------------------------------------------------------|
C#|------------------------------------------------------------------------------| 

  *strum the chords through*
  They learn the sea, For they will swim
D#|------------------------------------------------------------------------------|
A#|-------------------13---------------------------------------------------------|
F#|10-----------------12---------------------------------------------------------|
C#|-------------------10---------------------------------------------------------|
G#|8------------------10---------------------------------------------------------|
C#|------------------------------------------------------------------------------| 

  I bet they cannot, forget their landmark
D#|------------------------------------------------------------------------------|
A#|------------------13----------------------------------------------------------|
F#|10----------------12----------------------------------------------------------|
C#|------------------10----------------------------------------------------------|
G#|8-----------------10----------------------------------------------------------|
C#|------------------------------------------------------------------------------| 

[Verse 2]
   I met a man at church on Saturday    He said I’m here cause I am sick
D#|------------------------------------------------------------------------------|
A#|-------6666666666---------------------------6666666666------------------------|
F#|-------7777777777---------------------------7777777777------------------------|
C#|------------------------------------------------------------------------------|
G#|0-8-5--------------------------------0-8-5------------------------------------|
C#|0------------------------------------0----------------------------------------|

   But we all drop just the same       And when we drop we will learn to bounce
D#|------------------------------------------------------------------------------|
A#|-------6666666666---------------------------6666666666------------------------|
F#|-------7777777777---------------------------7777777777------------------------|
C#|------------------------------------------------------------------------------|
G#|0-8-5--------------------------------0-8-5------------------------------------|
C#|0------------------------------------0----------------------------------------|

[Break]
*play with the words**Mute after each open note*
   And I believe in everything you tell me because                      
D#|------------------------------------------------------------------------------|
A#|------------------------------------------------------------------------------|
F#|------------------------------------------------------------------------------|
C#|------------------------------------------------------------------------------|
G#|------------------------------------------------------------------------------|
C#|0---0---0---0---0---0---0---0---0---xxxx-xxxx---------------------------------|
                                       |---PM---|                                
   I believe in everything you show me because
D#|------------------------------------------------------------------------------|
A#|------------------------------------------------------------------------------|
F#|------------------------------------------------------------------------------|
C#|------------------------------------------------------------------------------|
G#|------------------------------------------------------------------------------|
C#|0---0---0---0---0---0---0---0---0---xxxx-xxxx---------------------------------|
                                       |---PM---|                                
   *emphisize the palm mutes in this measure*
   I       can      see       it   all
D#|------------------------------------------------------------------------------|
A#|------------------------------------------------------------------------------|
F#|------------------------------------------------------------------------------|
C#|------------------------------------------------------------------------------|
G#|------------------------------------------------------------------------------|
C#|0--0-0---0--0-0---0---0-0---0---0---------------------------------------------|
    |-PM-|    |-PM-|   |-PM-|                        

   Having        trouble       getting       over    insecurities
D#|------------------------------------------------------------------------------|
A#|------------------------------------------------------------------------------|
F#|10-10-10-10-10-10-10-10-10-10-10-10-10-10-10-10-------------------------------|
C#|------------------------------------------------------------------------------|
G#|8--8--8--8--8--8--8--8--8--8--8--8--8--8--8--8-----0-5-7-8-5------------------|
C#|---------------------------------------------------0-5-7-8-5------------------|

*Strum through till the end of the sentence*
   I am the wall
D#|------------------------------------------------------------------------------|
A#|13----------------------------------------------------------------------------|
F#|12----------------------------------------------------------------------------|
C#|10----------------------------------------------------------------------------|
G#|10----------------------------------------------------------------------------|
C#|------------------------------------------------------------------------------|

   If   you   cannot   forget   this   I   will        remain
D#|------------------------------------------------------------------------------|
A#|------------------------------------------------------------------------------|
F#|10-10-10-10-10-10-10-10-10-10-10-10-10-10-10-10-------------------------------|
C#|------------------------------------------------------------------------------|
G#|8--8--8--8--8--8--8--8--8--8--8--8--8--8--8--8-----0-5-7-8-5------------------|
C#|---------------------------------------------------0-5-7-8-5------------------|

*Strum through till the end of the sentence*
   You will not fall
D#|------------------------------------------------------------------------------|
A#|13----------------------------------------------------------------------------|
F#|12----------------------------------------------------------------------------|
C#|10----------------------------------------------------------------------------|
G#|10----------------------------------------------------------------------------|
C#|------------------------------------------------------------------------------|

[Outro]

   I found that the wait has only  Given away this opportunity
D#|------------------------------------------------------------------------------|
A#|------------------------------------------------------------------------------|
F#|10-10-10-10-10--10-10-10-10-----10-10-10-10-10-10/12--------------------------|
C#|------------------------------------------------------------------------------|
G#|8--8--8--8--8---8--8--8--8------8--8--8--8--8--8-/10--------------------------|
C#|------------------------------------------------------------------------------|
  
  lucky for me, the sun it sets and it sets on and on again
D#|------------------------------------------------------------------------------|
A#|------------------------------------------------------------------------------|
F#|12-12-12-12-12--12-12-12-12-12--12-12-12-12-12--12-12-12-12-12--12-12-12-12-12|
C#|14-14-14-14-14--14-14-14-14-14--14-14-14-14-14--14-14-14-14-14--14-14-14-14-14|
G#|10-10-10-10-10--10-10-10-10-10--10-10-10-10-10--10-10-10-10-10--10-10-10-10-10|
C#|10-10-10-10-10--10-10-10-10-10--10-10-10-10-10--10-10-10-10-10--10-10-10-10-10|


*play with the words**Mute after each open note*
   We all can't be                      son of man
D#|------------------------------------------------------------------------------|
A#|------------------------------------------------------------------------------|
F#|------------------------------------------------------------------------------|
C#|------------------------------------------------------------------------------|
G#|------------------------------------------------------------------------------|
C#|0--0--0--0-------x-x-x-x-x-x-x------0--0--0--0----*Let Last note Ring Out*----|
                   |------PM-----|



************************************

| /   Slide up
| x   Dead note
| PM  Palm mute

************************************

            
            
Suggest correction
Creating personal tab
Creating personal tab
You can edit any tab online and save it as your Personal.

You can edit, replace or remove any tab part or add personal notes – all changes will be seen only by you.

Personal tabs can be accessed anytime from any device, even offline.
Learn more »
Give kudos to tab author, rate the tab!
1 2 3 4 5
comments
print report bad tab
guest
You may want to rate the tab now too:
select rating
Wanna post a correction for this tab? Suggest correction