Oops, an error
Loading. Please wait.

Ikaw Pa Rin Acoustic tab

version 1
version 1

Whole song

Interactive

15,404 views 9 this week
no commentswrite comment
1 2 3 4 5
1 last vote to show rating
add to favorites
×
Save as Personal and add changes to this tab that will be seen only by you. Learn more ›
×
You can save this tab as Personal to edit and correct it or add notes. All changes will be seen only by you. Learn more »
launch autoscroll
font size
0
reset
how to read this tab
guitar tuner
edit
Autoscroll
slow
fast
+/-
esc
set tempo
stop
Author
Difficulty
Ikaw Pa Rin By: Letter Day of Story
Chords By: Neil Richard Lopez Baludcal
chad_03_fender@yahoo.com
09196468416

LEGEND:
D  xxx23x
A  xxx22x / xx22xx
Bm xx4432
G  x5543x

Intro: D , A , Bm , G pause

	D			A
E----------------------------------------------I
B------10----------------8-s-7-p-8-------------I
G--/7-----7-----7-h-9-----------------7-h-9----I
D----------------------------------------------I
A----------------------------------------------I
E----------------------------------------------I
	Bm			        G
E--------------------------------I-------------I
B-------------10-----------------I------3------I
G-----------7----7---------------I------4------I
D--7-h-9-------------------------I------5------I
A--------------------------------I------5------I
E--------------------------------I-------------I

Verse:
  D ,     A ,      Bm ,       G
Ilang araw na kitang hinahanap at wala ka
  D ,     A ,      Bm ,       G
Isang linggo nang nakalipas di ka pa rin nagpapakita

Refrain:
 Bm,     G,       D,          A        
Pano kung bigla ka lang iiwas at mawawala
 Bm,     G,       D,          A  
Di ‘to matatanggap ng buong buhay koo...

Chorus:
 D ,     A ,      Bm ,       G  
Nais kong malaman mo na ikaw lang ang nasa puso ko
 D ,     A ,      Bm ,       G
At kahit na anong mangyari ikaw pa rin ang iibigin ko

Verse II: (Do Verse Chords)
Ilang gabi na kong di makatulog sa kakaisip
Lahat ng oras nasa iyo
Di mo parin napapansin

(Repeat Refrain and Chorus)

Bridge:(Do Refrain Chords)
Sana lang ay maunawan mo ang nasa isip ko
Gagawin ko ang lahat para lang sa iyo
(Repeat Chorus)

That's it!!! timing lng brod!
My first tab was dedicated to my one and only “bebhie” 
Ms. Margielyn Beratio iloveyou so much… this song is for you...


            
            
Suggest correction
Creating personal tab
Creating personal tab
You can edit any tab online and save it as your Personal.

You can edit, replace or remove any tab part or add personal notes – all changes will be seen only by you.

Personal tabs can be accessed anytime from any device, even offline.
Learn more »
Give kudos to tab author, rate the tab!
1 2 3 4 5
comments
print report bad tab
guest
You may want to rate the tab now too:
select rating
Wanna post a correction for this tab? Suggest correction