Oops, an error
Loading. Please wait.

Ikaw Pa Rin Tab

version 1
version 1

Whole song

Interactive

12,442 views 6 this week
2 commentsread comments
1 2 3 4 5
please rate
add to favorites
launch autoscroll
font size
0
reset
how to read this tab
guitar tuner
Tab Pro tools
  • play this tab
  • loop segment
  • change instrument
  • show fretboard
  • metronome
×
Best way to learn
"Ikaw Pa Rin"
Autoscroll
slow
fast
+/-
esc
set tempo
stop
Contributor
Difficulty
novice
Song: Ikaw Parin (Acoustic)
Artist: Letter day story
Transcribed by: drew_Castillo (from Aklan, Philippines)
Email: im_andrew07@yahoo.com

I really like this song that I am so upset that there’s no one get the right or at 
least accurate tab so I made my own tab, and I like it. Well it may not be the 
right chords or something bla bla bla co’z I didn’t follow the music; it is a very 
complicated one so I made my own version and it may sounds good. It’s 85.9.2.7% 
accurate. (Hehe) Just follow this tab. But if you want to add or change something, it’s up to you.

Standard tuning: Guitar 1 & 2 (acoustic)
e|----|
B|----|
G|----| (to get the same sound as
D|----|   the music, you may put a 
A|----|     capo at the 2nd fret)
E|----|

Legend:
   h         -hammer-on
   p         -pull-off
   s\        -slide up
   s/        -slide down
   ~             -let string

Intro:

Guitar 1:
    
|---0-3-----------|-1-0-------------|-0-3-------|-3~-|
|---1---1~--------|-----3-1-3~------|-1---1-----|-3~-|
|---0-------------|-----------------|-0---------|-0~-|
|---2-------------|-----------------|-2---------|-0~-|
|---3-------------|-----------------|-3---------|-2~-|
|---0-------------|-----------------|-0---------|-3~-|

Guitar 2:
|---0-------------|---3-------------|-0---------|-3--|
|---1-------------|---3-------------|-1---------|-3--|
|---0-------------|---0-------------|-0---------|-0~-|
|---2--0-2-4-5-2~-|---0-0-2-2-4-2---|-2---------|-0~-|
|---3-------------|---2-------------|-3-0-2-3-4-|-2~-|
|---0-------------|---3-------------|-0---------|-3~-|


Verse 1:
Guitar1:
|----------3~-----------3-----|-------------------------|-
|------1-------1------1---1---|---------------3-------3-|-
|--------0-------0----------2-|------0-----0--------0---|-
|----2-------------2----------|----0---0----------0-----|-
|--3--------------------------|--2--------------2-------|-
|-----------------------------|----------3--------------|-
       Ilang..      ...araw..       ..na....kitang.....     

-|-------------------|------------1---|
-|-------------------|----------------|
-|------1----------1-|--------2~------|
-|----2----------2---|------3---------|
-|--2-----2~---------|----3-----------|
-|-------------------|--1-------------|
....hinahanap  at  ....wala ka.....

Guitar2:
|--0------3-----3-|--3------3-----3-|--0-------0-----|--1~--0-3-5-|
|--1----1-----1---|--3----3-----3---|--1---------1~--|--1~--------|
|--0--0-----0-----|--0--0-----0-----|--2----2--------|--2~--------|
|--2--------------|--0--------------|--2--2----------|--3~--------|
|--3--------------|--2--------------|--0-------------|--3~--------|
|--0--------------|--3--------------|----------------|--1~--------|
   ..ilang araw   ..na kitang        ..hinahanap at..  wala ka..



Verse:
Guitar1:
|----------3~-----------3-----|-------------------------|
|------1-------1------1---1---|---------------3-------3-|
|--------0-------0----------2-|------0-----0--------0---|
|----2-------------2----------|----0---0----------0-----|
|--3--------------------------|--2--------------2-------|
|-----------------------------|----------3--------------|
       Isang..     ...linggo..       ..ng....nakalipas.....     

|-------------------|------------1---|
|-------------------|----------------|
|------1----------1-|--------2~------|
|----2----------2---|------3---------|
|--2-----2~---------|----3-----------|
|-------------------|--1-------------|
....at di ka parin  ....nagpapakita.....


Guitar2:
|--0------3-----3-|--3------3-----3-|--0-------0-----p--1~-------|
|--1----1-----1---|--3----3-----3---|--1---------1~--a--1~-------|
|--0--0-----0-----|--0--0-----0-----|--2----2--------u--2~-------|
|--2--------------|--0--------------|--2--2----------s--3~-------|
|--3--------------|--2--------------|--0-------------e--3~-------|
|--0--------------|--3--------------|-------------------1~-------|

Pre-Chorus 1:
Guitar 1:
|--2-------------2------|--------------2---------2---|-
|--3------3----------3--|------3---------------------|-
|--2—2~h4---2h4----2----|----4---4-------------------|-
|--0--------------------|--4---------------4s\5------|-
|--0--------------------|-----------2----------------|-
|-----------------------|----------------------------|-
     Pano....      kung.. bigla....    ka    ...lang 

-|--------------3------|-----0---0~-----|
-|------------3--3-----|-----2~---------|
-|---------------------|-----2~---------|
-|---0-----0-----------|-----2~---------|
-|---2---2-------------|----------------|
-|---3-----------------|----------------|
  Iiwas     ...at             ..mawawala...

Guitar 2:
      Strumming here
|--2------2------3------0-- |   |----------|
|--3------3------3------2-- | t |---0-2-3--|
|--2------4------0------2-- | h |----------|
|--0------4------0------2-- | e |----------|
|--0------2------2------0-- | n |----------|
|--0-------------3--------- |   |----------|


Guitar 1:
|--2-------------2------|--------------2---------2---|-
|--3------3----------3--|------3---------------------|-
|--2—2~h4---2h4----2----|----4---4-------------------|-
|--0--------------------|--4---------------4s\5------|-
|--0--------------------|-----------2----------------|-
|-----------------------|----------------------------|-
     ‘di....      ‘to..  matatanggap....  ng  ... 

-|----------2-2---2-2---2-2---|-----0----------|
-|-----2--3-----3-----3-----3-|-----2~---------|
-|----------------------------|-----2~---------|
-|---0------------------------|-----2~---------|
-|---2------------------------|----------------|
-|---3------------------------|----------------|
  Buong...   ...buhay........   ..... ko...

Guitar 2:
      Strumming here
|--2------2------3------0-- |
|--3------3------3------2-- | 
|--2------4------0------2-- |
|--0------4------0------2-- | 
|--0------2------2------0-- | 
|--0-------------3--------- |  


Chorus 1:
Guitar 1:
|-----------h5~--------5~-   ---------2------2~--
|---2~h3-3-------2~h3----- r -2~h3-3---2~h3------ r
|------------------------- e -------------------- e
|------------------------- s -------------------- s
|------------------------- t -------------------- t
|-------------------------   -------------------- 
Nais kong malaman mo na ikaw lang ang nasa puso ko
At kahit na anong mangyari ikaw pa rin ang iibigin ko

Guitar 2:
        Strumming here.....
|--0-----3-----0-----1----|
|--1-----3-----1-----1----|   music stop except
|--0-----0-----2-----2----|       guitar 2
|--2-----0-----2-----3----| 
|--3-----2-----0-----3----|
|--0-----3-----0-----1----|

Guitar 2 do this after chorus:
|------0-|------0-|------0-|------0~--5----|
|--2h3---|--2h3---|--2h3---|--2h3-------3--|
|--------|--------|--------|---------------|
|--------|--------|--------|---------------|
|--------|--------|--------|---------------|
|--------|--------|--------|---------------|
Guitar 1:
|--------|--------|--------|----------5----|
|--------|--------|--------|------------3--|
|--------|--------|--------|---------------|
|--------|--------|--------|---------------|
|--------|--------|--------|---------------|
|--------|--------|--------|---------------|



Verse 2:
Guitar 1:
|-------0------2--5-----------2-----5---------5--------|
|--2-3----3-2-------3-2-0-2-3---2h3----3-2-0----3------|
|------------------------------------------------------|  Reapet 2x
|------------------------------------------------------|
|------------------------------------------------------|
|------------------------------------------------------|
Ilang gabi na kong di makatulog sa kakaisip
Lahat ng oras nasa iyo
Di mo parin napapansin

Guitar 2: Repeated several times.
|---------------|-------------------|
|---------------|-------------------|
|---------------|-------------------| {listen to music
|--4-4-2-2-4-4--|--2-4-4-2-2-4-4----| to get the timing)
|---------------|-------------------|
|---------------|-------------------|
...ilang gabi...    ..maka tulog..


Then:
Guitar 1:         Guitar 2:
|--------2~---|  |-------0~-----|
|-------3~----|  |------0~------|
|------2~-----|  |-----7~-------|
|-----0~------|  |----7~--------|
|----0~-------|  |---5~---------|
|---0~--------|  |--0~----------|


Pre-Chorus 2:
Guitar 1:
|--2~-2-3----2~---2----3~---3----0~---|
|--3~--------3~-3------3~-3------2~---|
|--2~--------4~--------0~--------2~---|
|--0~--------4~--------0~--------2~---|
|--0~--------2~--------2~--------0~---|
|--0~------------------3~-------------|
Pano kung bigla ka lang iiwas at mawawala

|--2--2-3----2----2----3-------2-2--2-2--2-2--2-2--2-2--0--|
|--3---------3--3------3---2-3----3----3----3----3------2--|
|--2---------4---------0--------------------------------2--|
|--0---------4---------0--------------------------------2--|
|--0---------2---------2--------------------------------0--|
|--0-------------------3-----------------------------------|
Di ‘to matatanggap ng buong buhay koo...


Guitar 2: Repeated several times.
|----------------|--------------------|
|----------------|--------------------|
|----------------|--------------------| (listen to music
|--0-2-4-4-2-2-0-|--0-0-2-2-4-4-2-----| to get the right
|----------------|--------------------|     timing)
|----------------|--------------------|

Chorus 2:

Guitar 1: do this 2x
 (18x)  (18x)
|--2-----0-------2-2---2-2---2-2---2-2--2----------------------------|
|--2-----2----2-3---2-3---2-3---2-3----3---2h3--2h3--2h3--2h3--2h3-3-|
|--------------------------------------------------------------------| 
|--------------------------------------------------------------------|
|--------------------------------------------------------------------|
|--------------------------------------------------------------------|

Guitar 2: Strumming here..
|--0------3------0------1----------|
|--1------3------1------1----------|
|--0------0------2------2----------| 2x
|--2------0------2------3----------|
|--3------2------0------3----------|
|--0------3------0------1----------|



Bridge:
Guitar 1:
|--0----0---3---3----0----0--1--1-----|
|--1--------3-3------1-------1--------|
|--0--0-----0-----0--2--2----2--------|
|--2--------0--------2-------3--------|
|--3--------2--------0-------3--------|
|--0--------3--------0-------1--------|
   Sana lang ay...       ..isip ko..

Strumming
|--0--------3--------0-------1--------------|
|--1--------3--------1-------1--------------|
|--0--------0--------2-------2--------------|
|--2--------0--------2-------3--------------|
|--3--------2--------0-------3--------------|
|--0--------3--------0-------1--------------|
Gagawin ko ang lahat...... sa iyo..


Guitar 2:
|--------|---------------|
|--------|---------------|
|--------|---------------| this part was
|---0-4~-|----0-4~-------| repeated several times
|--------|---------------| just listen to the music
|--------|---------------| to get the right timing
   Sana lang ay...

|--0--------3--------0-------1----------5-3~--|
|--1--------3--------1-------1------3-5-------|
|--0--------0--------2-------2--0-3-----------|
|--2--------0--------2-------3----------------|
|--3--------2--------0-------3----------------|
|--0--------3--------0-------1----------------|
  Gagawin ko ang lahat......      ....sa iyo....

Back to chorus 2.
comments
We did not receive enough feedback on this tab! Please rate:
print report bad tab
1 2 3 4 5
2 comments total.
0 reply
jeak wrote on August 31 2010, 05:43 am

tol asan ung adlib n2?
saka prang mjo mlau.....
pa aus n lng n2 gue!

0 reply
im_andrew07 wrote on March 6 2011, 07:48 pm

hehe.. sensya.. electric kasi pinang kapa ko diyan.. nung trinay ko sa acoustic malayo nga.. ayusin kunalang sa sunod.. tsaka nakalimutan ko ilagay adlib..

I want to post or [tab]
guest
You may want to rate the tab now too:
select rating
Please do not post tabs as comments. Select "correction" instead!