Oops, an error
Loading. Please wait.

Dont Believe Bass Tab

121 views 1 this week
no commentswrite comment
1 2 3 4 5
3 more votes to show rating
add to favorites
launch autoscroll
font size
0
reset
guitar tuner
Autoscroll
slow
fast
+/-
esc
set tempo
stop
Help us to improve Ultimate-Guitar.com Take our survey!
×
Author
Band - Letter KIlls
Song - Don't Believe

Intro:
G |--------------|
D |--------------|
A |--------------| x4
E |--1-33333333--| 

Verse:
G |-------|
D |-------|
A |-------| x8
E |-1-33—-|

Prechorus:
G |-------------------|
D |-------------------|
A |-------------------|
E |-11111111-22222222-|

Chorus:
G |-----------------------------|
D |-----------------------------|  
A |------1111-33333333----------| x2
E |-3333---------------11111111-|

Verse:
G |-------|
D |-------|
A |-------| x8
E |-1-33—-|

Chorus:
G |-------------------|
D |-------------------|
A |-------------------|
E |-11111111-22222222-|

Chorus:
G |-----------------------------|
D |-----------------------------|  
A |------1111-33333333----------| x2
E |-3333---------------11111111-|

Bridge:
G |----------------|      |--------------------------------|
D |------------11--|      |-----------11-11111111----------|
A |-----1--------—-| x3   |-----1-----------------33333333-|
E |-3313-31-33-----|      |-3313-31-33---------------------|

G |----------|      |----------------------------|
D |----------|      |----------11111111----------|
A |-----1----| x2   |-11111111----------33333333-|
E |-3313-31--|      |----------------------------|

G |-------------------------|
D |---------------11111111~-|
A |-----1----1111-----------|
E |-3313-31-----------------|

Chorus:
G |-----------------------------|
D |-----------------------------|  
A |------1111-33333333----------| x2
E |-3333---------------11111111-|

Outro:
G |--------------------|
D |--------------------|
A |-------------111----|
E |-333-111-333-----33-|

End.
Suggest correction
Give kudos to tab author, rate the tab!
1 2 3 4 5
comments
print report bad tab
guest
You may want to rate the tab now too:
select rating
Wanna post a correction for this tab? Suggest correction