Oops, an error
Loading. Please wait.

Dont Believe Tab

version 2
version 2

Intro

Whole song

241 views 1 this week
1 commentread comment
1 2 3 4 5
please rate
add to favorites
launch autoscroll
font size
0
reset
how to read this tab
guitar tuner
Tab Pro tools
  • play this tab
  • loop segment
  • change instrument
  • show fretboard
  • metronome
×
Best way to learn
"Dont Believe"
Autoscroll
slow
fast
+/-
esc
set tempo
stop
Contributor
Difficulty
Tuning
novice
D A D G B E
Letter Kills - Dont Believe

I think this is the right version of the intro. some of the other ones just didnt seem right.

Drop-D Tuning

b - bend
[] - play that note on the bend

play the riff for both guitars 4x

1st Guitar

e|--------------------------------------------------------|
B|--------------------------------------------------------|
G|--------------------------------------------------------|
D|-------------------------------------------------5b[6]--|
A|----------3-----------6b[7]----------3------------------|
D|-5--5-3-5---5-3-5--5--------5--5-3-5---5-3-5--5---------|

2nd Guitar

e|--------------------------------------------------------|
B|--------------------------------------------------------|
G|--------------------------------------------------------|
D|--------------------------------------------------------|
A|----------3---------------------------3-----------1--1--|
D|-5--5-3-5---5-3-5--5--4b[5]--5--5-3-5---5-3-5--5--1--1--|
comments
We did not receive enough feedback on this tab! Please rate:
print report bad tab
1 2 3 4 5
1 comment total.
0 reply
newblink41trio wrote on February 4 2007, 07:58 pm

sorry about the mess-up but its

e|--------------------------------------------------------|
B|--------------------------------------------------------|
G|--------------------------------------------------------|
D|-------------------------------------------------5b[6]--|
A|----------1-----------6b[7]----------1------------------|
D|-5--5-3-5---5-3-5--5--------5--5-3-5---5-3-5--5---------|

with a 1 for all of the 3s in that spot

I want to post or [tab]
guest
You may want to rate the tab now too:
select rating
Please do not post tabs as comments. Select "correction" instead!